  0
SECTION
  2
HEADER
  9
$ACADVER
  1
AC1014
  9
$ACADMAINTVER
 70
     9
  9
$DWGCODEPAGE
  3
ANSI_1252
  9
$INSBASE
 10
0.0
 20
0.0
 30
0.0
  9
$EXTMIN
 10
1.000000000000000E+20
 20
1.000000000000000E+20
 30
1.000000000000000E+20
  9
$EXTMAX
 10
-1.000000000000000E+20
 20
-1.000000000000000E+20
 30
-1.000000000000000E+20
  9
$LIMMIN
 10
0.0
 20
0.0
  9
$LIMMAX
 10
12.0
 20
9.0
  9
$ORTHOMODE
 70
     0
  9
$REGENMODE
 70
     1
  9
$FILLMODE
 70
     1
  9
$QTEXTMODE
 70
     0
  9
$MIRRTEXT
 70
     1
  9
$DRAGMODE
 70
     2
  9
$LTSCALE
 40
1.0
  9
$OSMODE
 70
    37
  9
$ATTMODE
 70
     1
  9
$TEXTSIZE
 40
0.2
  9
$TRACEWID
 40
0.05
  9
$TEXTSTYLE
  7
STANDARD
  9
$CLAYER
  8
0
  9
$CELTYPE
  6
BYLAYER
  9
$CECOLOR
 62
   256
  9
$CELTSCALE
 40
1.0
  9
$DELOBJ
 70
     1
  9
$DISPSILH
 70
     0
  9
$DIMSCALE
 40
1.0
  9
$DIMASZ
 40
0.18
  9
$DIMEXO
 40
0.0625
  9
$DIMDLI
 40
0.38
  9
$DIMRND
 40
0.0
  9
$DIMDLE
 40
0.0
  9
$DIMEXE
 40
0.18
  9
$DIMTP
 40
0.0
  9
$DIMTM
 40
0.0
  9
$DIMTXT
 40
0.18
  9
$DIMCEN
 40
0.09
  9
$DIMTSZ
 40
0.0
  9
$DIMTOL
 70
     0
  9
$DIMLIM
 70
     0
  9
$DIMTIH
 70
     1
  9
$DIMTOH
 70
     1
  9
$DIMSE1
 70
     0
  9
$DIMSE2
 70
     0
  9
$DIMTAD
 70
     0
  9
$DIMZIN
 70
     0
  9
$DIMBLK
  1

  9
$DIMASO
 70
     1
  9
$DIMSHO
 70
     1
  9
$DIMPOST
  1

  9
$DIMAPOST
  1

  9
$DIMALT
 70
     0
  9
$DIMALTD
 70
     2
  9
$DIMALTF
 40
25.4
  9
$DIMLFAC
 40
1.0
  9
$DIMTOFL
 70
     0
  9
$DIMTVP
 40
0.0
  9
$DIMTIX
 70
     0
  9
$DIMSOXD
 70
     0
  9
$DIMSAH
 70
     0
  9
$DIMBLK1
  1

  9
$DIMBLK2
  1

  9
$DIMSTYLE
  2
STANDARD
  9
$DIMCLRD
 70
     0
  9
$DIMCLRE
 70
     0
  9
$DIMCLRT
 70
     0
  9
$DIMTFAC
 40
1.0
  9
$DIMGAP
 40
0.09
  9
$DIMJUST
 70
     0
  9
$DIMSD1
 70
     0
  9
$DIMSD2
 70
     0
  9
$DIMTOLJ
 70
     1
  9
$DIMTZIN
 70
     0
  9
$DIMALTZ
 70
     0
  9
$DIMALTTZ
 70
     0
  9
$DIMFIT
 70
     3
  9
$DIMUPT
 70
     0
  9
$DIMUNIT
 70
     2
  9
$DIMDEC
 70
     4
  9
$DIMTDEC
 70
     4
  9
$DIMALTU
 70
     2
  9
$DIMALTTD
 70
     2
  9
$DIMTXSTY
  7
STANDARD
  9
$DIMAUNIT
 70
     0
  9
$LUNITS
 70
     2
  9
$LUPREC
 70
     4
  9
$SKETCHINC
 40
0.1
  9
$FILLETRAD
 40
0.5
  9
$AUNITS
 70
     0
  9
$AUPREC
 70
     0
  9
$MENU
  1
.
  9
$ELEVATION
 40
0.0
  9
$PELEVATION
 40
0.0
  9
$THICKNESS
 40
0.0
  9
$LIMCHECK
 70
     0
  9
$CHAMFERA
 40
0.5
  9
$CHAMFERB
 40
0.5
  9
$CHAMFERC
 40
1.0
  9
$CHAMFERD
 40
0.0
  9
$SKPOLY
 70
     0
  9
$TDCREATE
 40
2455525.487162338
  9
$TDUPDATE
 40
2455525.48716235
  9
$TDINDWG
 40
0.0000000116
  9
$TDUSRTIMER
 40
0.0000000116
  9
$USRTIMER
 70
     1
  9
$ANGBASE
 50
0.0
  9
$ANGDIR
 70
     0
  9
$PDMODE
 70
     0
  9
$PDSIZE
 40
0.0
  9
$PLINEWID
 40
0.0
  9
$COORDS
 70
     1
  9
$SPLFRAME
 70
     0
  9
$SPLINETYPE
 70
     6
  9
$SPLINESEGS
 70
     8
  9
$ATTDIA
 70
     0
  9
$ATTREQ
 70
     1
  9
$HANDLING
 70
     1
  9
$HANDSEED
  5
2CC
  9
$SURFTAB1
 70
     6
  9
$SURFTAB2
 70
     6
  9
$SURFTYPE
 70
     6
  9
$SURFU
 70
     6
  9
$SURFV
 70
     6
  9
$UCSNAME
  2

  9
$UCSORG
 10
0.0
 20
0.0
 30
0.0
  9
$UCSXDIR
 10
1.0
 20
0.0
 30
0.0
  9
$UCSYDIR
 10
0.0
 20
1.0
 30
0.0
  9
$PUCSNAME
  2

  9
$PUCSORG
 10
0.0
 20
0.0
 30
0.0
  9
$PUCSXDIR
 10
1.0
 20
0.0
 30
0.0
  9
$PUCSYDIR
 10
0.0
 20
1.0
 30
0.0
  9
$USERI1
 70
     0
  9
$USERI2
 70
     0
  9
$USERI3
 70
     0
  9
$USERI4
 70
     0
  9
$USERI5
 70
     0
  9
$USERR1
 40
0.0
  9
$USERR2
 40
0.0
  9
$USERR3
 40
0.0
  9
$USERR4
 40
0.0
  9
$USERR5
 40
0.0
  9
$WORLDVIEW
 70
     1
  9
$SHADEDGE
 70
     3
  9
$SHADEDIF
 70
    70
  9
$TILEMODE
 70
     1
  9
$MAXACTVP
 70
    64
  9
$PINSBASE
 10
0.0
 20
0.0
 30
0.0
  9
$PLIMCHECK
 70
     0
  9
$PEXTMIN
 10
1.000000000000000E+20
 20
1.000000000000000E+20
 30
1.000000000000000E+20
  9
$PEXTMAX
 10
-1.000000000000000E+20
 20
-1.000000000000000E+20
 30
-1.000000000000000E+20
  9
$PLIMMIN
 10
0.0
 20
0.0
  9
$PLIMMAX
 10
12.0
 20
9.0
  9
$UNITMODE
 70
     0
  9
$VISRETAIN
 70
     1
  9
$PLINEGEN
 70
     0
  9
$PSLTSCALE
 70
     1
  9
$TREEDEPTH
 70
  3020
  9
$PICKSTYLE
 70
     1
  9
$CMLSTYLE
  2
STANDARD
  9
$CMLJUST
 70
     0
  9
$CMLSCALE
 40
1.0
  9
$PROXYGRAPHICS
 70
     1
  9
$MEASUREMENT
 70
     0
  0
ENDSEC
  0
SECTION
  2
CLASSES
  0
CLASS
  1
ACDBDICTIONARYWDFLT
  2
AcDbDictionaryWithDefault
  3
ObjectDBX Classes
 90
        0
280
     0
281
     0
  0
CLASS
  1
VISUALSTYLE
  2
AcDbVisualStyle
  3
ObjectDBX Classes
 90
     4095
280
     0
281
     0
  0
CLASS
  1
MATERIAL
  2
AcDbMaterial
  3
ObjectDBX Classes
 90
     1153
280
     0
281
     0
  0
CLASS
  1
SCALE
  2
AcDbScale
  3
ObjectDBX Classes
 90
     1153
280
     0
281
     0
  0
CLASS
  1
DICTIONARYVAR
  2
AcDbDictionaryVar
  3
ObjectDBX Classes
 90
        0
280
     0
281
     0
  0
CLASS
  1
XRECORD
  2
AcDbXrecord
  3
AutoCAD 2000
 90
        0
280
     0
281
     0
  0
CLASS
  1
LWPOLYLINE
  2
AcDbPolyline
  3
AutoCAD 2000
 90
        0
280
     0
281
     1
  0
CLASS
  1
HATCH
  2
AcDbHatch
  3
AutoCAD 2000
 90
        0
280
     0
281
     1
  0
CLASS
  1
ACDBPLACEHOLDER
  2
AcDbPlaceHolder
  3
ObjectDBX Classes
 90
        0
280
     0
281
     0
  0
CLASS
  1
LAYOUT
  2
AcDbLayout
  3
ObjectDBX Classes
 90
        0
280
     0
281
     0
  0
ENDSEC
  0
SECTION
  2
TABLES
  0
TABLE
  2
VPORT
  5
8
330
0
100
AcDbSymbolTable
 70
     1
  0
VPORT
  5
29
330
8
100
AcDbSymbolTableRecord
100
AcDbViewportTableRecord
  2
*ACTIVE
 70
     0
 10
0.0
 20
0.0
 11
1.0
 21
1.0
 12
0.0
 22
0.0
 13
0.0
 23
0.0
 14
0.5
 24
0.5
 15
0.5
 25
0.5
 16
-0.5921030044556099
 26
0.592102974653244
 36
0.5921029653400183
 17
0.0000000000000435
 27
0.2916666567325592
 37
-0.020833333954215
 40
3.118563413619995
 41
0.320660466813856
 42
50.0
 43
0.0
 44
0.0
 50
0.0
 51
240.0000008325024
 71
     0
 72
   100
 73
     1
 74
     3
 75
     0
 76
     0
 77
     0
 78
     0
  0
ENDTAB
  0
TABLE
  2
LTYPE
  5
5
330
0
100
AcDbSymbolTable
 70
     1
  0
LTYPE
  5
14
330
5
100
AcDbSymbolTableRecord
100
AcDbLinetypeTableRecord
  2
BYBLOCK
 70
     0
  3

 72
    65
 73
     0
 40
0.0
  0
LTYPE
  5
15
330
5
100
AcDbSymbolTableRecord
100
AcDbLinetypeTableRecord
  2
BYLAYER
 70
     0
  3

 72
    65
 73
     0
 40
0.0
  0
LTYPE
  5
16
330
5
100
AcDbSymbolTableRecord
100
AcDbLinetypeTableRecord
  2
CONTINUOUS
 70
     0
  3
Solid line
 72
    65
 73
     0
 40
0.0
  0
ENDTAB
  0
TABLE
  2
LAYER
  5
2
330
0
100
AcDbSymbolTable
 70
     1
  0
LAYER
  5
10
330
2
100
AcDbSymbolTableRecord
100
AcDbLayerTableRecord
  2
0
 70
     0
 62
     7
  6
CONTINUOUS
  0
ENDTAB
  0
TABLE
  2
STYLE
  5
3
330
0
100
AcDbSymbolTable
 70
     1
  0
STYLE
  5
11
330
3
100
AcDbSymbolTableRecord
100
AcDbTextStyleTableRecord
  2
STANDARD
 70
     0
 40
0.0
 41
1.0
 50
0.0
 71
     0
 42
0.2
  3
txt
  4

  0
ENDTAB
  0
TABLE
  2
VIEW
  5
6
330
0
100
AcDbSymbolTable
 70
     0
  0
ENDTAB
  0
TABLE
  2
UCS
  5
7
330
0
100
AcDbSymbolTable
 70
     0
  0
ENDTAB
  0
TABLE
  2
APPID
  5
9
330
0
100
AcDbSymbolTable
 70
     1
  0
APPID
  5
12
330
9
100
AcDbSymbolTableRecord
100
AcDbRegAppTableRecord
  2
ACAD
 70
     0
  0
ENDTAB
  0
TABLE
  2
DIMSTYLE
  5
A
330
0
100
AcDbSymbolTable
 70
     1
  0
DIMSTYLE
105
27
330
A
100
AcDbSymbolTableRecord
100
AcDbDimStyleTableRecord
  2
STANDARD
 70
     0
  3

  4

  5

  6

  7

 40
1.0
 41
0.18
 42
0.0625
 43
0.38
 44
0.18
 45
0.0
 46
0.0
 47
0.0
 48
0.0
140
0.18
141
0.09
142
0.0
143
25.4
144
1.0
145
0.0
146
1.0
147
0.09
 71
     0
 72
     0
 73
     1
 74
     1
 75
     0
 76
     0
 77
     0
 78
     0
170
     0
171
     2
172
     0
173
     0
174
     0
175
     0
176
     0
177
     0
178
     0
270
     2
271
     4
272
     4
273
     2
274
     2
340
11
275
     0
280
     0
281
     0
282
     0
283
     1
284
     0
285
     0
286
     0
287
     3
288
     0
  0
ENDTAB
  0
TABLE
  2
BLOCK_RECORD
  5
1
330
0
100
AcDbSymbolTable
 70
     9
  0
BLOCK_RECORD
  5
1F
330
1
100
AcDbSymbolTableRecord
100
AcDbBlockTableRecord
  2
*MODEL_SPACE
  0
BLOCK_RECORD
  5
1B
330
1
100
AcDbSymbolTableRecord
100
AcDbBlockTableRecord
  2
*PAPER_SPACE
  0
BLOCK_RECORD
  5
3F
330
1
100
AcDbSymbolTableRecord
100
AcDbBlockTableRecord
  2
_STYLE_LIBRARY__DWFW3D_PUB
  0
BLOCK_RECORD
  5
42
330
1
100
AcDbSymbolTableRecord
100
AcDbBlockTableRecord
  2
*U2
  0
BLOCK_RECORD
  5
46
330
1
100
AcDbSymbolTableRecord
100
AcDbBlockTableRecord
  2
9
  0
BLOCK_RECORD
  5
4A
330
1
100
AcDbSymbolTableRecord
100
AcDbBlockTableRecord
  2
10
  0
BLOCK_RECORD
  5
4E
330
1
100
AcDbSymbolTableRecord
100
AcDbBlockTableRecord
  2
11
  0
BLOCK_RECORD
  5
52
330
1
100
AcDbSymbolTableRecord
100
AcDbBlockTableRecord
  2
12
  0
BLOCK_RECORD
  5
56
330
1
100
AcDbSymbolTableRecord
100
AcDbBlockTableRecord
  2
*U7
  0
BLOCK_RECORD
  5
219
330
1
100
AcDbSymbolTableRecord
100
AcDbBlockTableRecord
  2
*U8
  0
ENDTAB
  0
ENDSEC
  0
SECTION
  2
BLOCKS
  0
BLOCK
  5
20
330
1F
100
AcDbEntity
  8
0
100
AcDbBlockBegin
  2
*MODEL_SPACE
 70
     0
 10
0.0
 20
0.0
 30
0.0
  3
*MODEL_SPACE
  1

  0
ENDBLK
  5
21
330
1F
100
AcDbEntity
  8
0
100
AcDbBlockEnd
  0
BLOCK
  5
1C
330
1B
100
AcDbEntity
 67
     1
  8
0
100
AcDbBlockBegin
  2
*PAPER_SPACE
 70
     0
 10
0.0
 20
0.0
 30
0.0
  3
*PAPER_SPACE
  1

  0
ENDBLK
  5
1D
330
1B
100
AcDbEntity
 67
     1
  8
0
100
AcDbBlockEnd
  0
BLOCK
  5
40
330
3F
100
AcDbEntity
  8
0
100
AcDbBlockBegin
  2
_STYLE_LIBRARY__DWFW3D_PUB
 70
     0
 10
0.0
 20
0.0
 30
0.0
  3
_STYLE_LIBRARY__DWFW3D_PUB
  1

  0
ENDBLK
  5
41
330
3F
100
AcDbEntity
  8
0
100
AcDbBlockEnd
  0
BLOCK
  5
44
330
42
100
AcDbEntity
  8
0
100
AcDbBlockBegin
  2
*U2
 70
     1
 10
0.0
 20
0.0
 30
0.0
  3
*U2
  1

  0
INSERT
  5
47
330
42
100
AcDbEntity
  8
0
100
AcDbBlockReference
  2
9
 10
0.0
 20
0.0
 30
0.0
  0
ENDBLK
  5
45
330
42
100
AcDbEntity
  8
0
100
AcDbBlockEnd
  0
BLOCK
  5
48
330
46
100
AcDbEntity
  8
0
100
AcDbBlockBegin
  2
9
 70
     0
 10
0.0
 20
0.0
 30
0.0
  3
9
  1

  0
INSERT
  5
4B
330
46
100
AcDbEntity
  8
0
100
AcDbBlockReference
  2
10
 10
0.0
 20
0.0
 30
0.0
  0
ENDBLK
  5
49
330
46
100
AcDbEntity
  8
0
100
AcDbBlockEnd
  0
BLOCK
  5
4C
330
4A
100
AcDbEntity
  8
0
100
AcDbBlockBegin
  2
10
 70
     0
 10
0.0
 20
0.0
 30
0.0
  3
10
  1

  0
INSERT
  5
4F
330
4A
100
AcDbEntity
  8
0
100
AcDbBlockReference
  2
11
 10
0.0
 20
0.0
 30
0.0
  0
ENDBLK
  5
4D
330
4A
100
AcDbEntity
  8
0
100
AcDbBlockEnd
  0
BLOCK
  5
50
330
4E
100
AcDbEntity
  8
0
100
AcDbBlockBegin
  2
11
 70
     0
 10
0.0
 20
0.0
 30
0.0
  3
11
  1

  0
INSERT
  5
53
330
4E
100
AcDbEntity
  8
0
100
AcDbBlockReference
  2
12
 10
0.0
 20
0.0
 30
0.0
  0
ENDBLK
  5
51
330
4E
100
AcDbEntity
  8
0
100
AcDbBlockEnd
  0
BLOCK
  5
54
330
52
100
AcDbEntity
  8
0
100
AcDbBlockBegin
  2
12
 70
     0
 10
0.0
 20
0.0
 30
0.0
  3
12
  1

  0
INSERT
  5
57
330
52
100
AcDbEntity
  8
0
100
AcDbBlockReference
  2
*U7
 10
0.0
 20
0.0
 30
0.0
  0
ENDBLK
  5
55
330
52
100
AcDbEntity
  8
0
100
AcDbBlockEnd
  0
BLOCK
  5
58
330
56
100
AcDbEntity
  8
0
100
AcDbBlockBegin
  2
*U7
 70
     1
 10
0.0
 20
0.0
 30
0.0
  3
*U7
  1

  0
POLYLINE
  5
5A
330
56
100
AcDbEntity
  8
0
 62
    28
100
AcDbPolyFaceMesh
 66
     1
 10
0.0
 20
0.0
 30
0.0
 70
    64
 71
   233
 72
   212
  0
VERTEX
  5
5B
330
5A
100
AcDbEntity
  8
0
 62
    28
100
AcDbVertex
100
AcDbPolyFaceMeshVertex
 10
0.3333333432674408
 20
-0.0000000000000165
 30
-0.5416666865348816
 70
   192
  0
VERTEX
  5
5C
330
5A
100
AcDbEntity
  8
0
 62
    28
100
AcDbVertex
100
AcDbPolyFaceMeshVertex
 10
0.3333333432674408
 20
0.0104166669771075
 30
-0.5416666865348816
 70
   192
  0
VERTEX
  5
5D
330
5A
100
AcDbEntity
  8
0
 62
    28
100
AcDbVertex
100
AcDbPolyFaceMeshVertex
 10
0.3333333432674408
 20
0.0104166669771075
 30
-0.4895833432674408
 70
   192
  0
VERTEX
  5
5E
330
5A
100
AcDbEntity
  8
0
 62
    28
100
AcDbVertex
100
AcDbPolyFaceMeshVertex
 10
0.3333333432674408
 20
0.5
 30
-0.0000000000000007
 70
   192
  0
VERTEX
  5
5F
330
5A
100
AcDbEntity
  8
0
 62
    28
100
AcDbVertex
100
AcDbPolyFaceMeshVertex
 10
0.3333333432674408
 20
0.5
 30
0.5
 70
   192
  0
VERTEX
  5
60
330
5A
100
AcDbEntity
  8
0
 62
    28
100
AcDbVertex
100
AcDbPolyFaceMeshVertex
 10
0.3333333432674408
 20
-0.0000000000000132
 30
0.5
 70
   192
  0
VERTEX
  5
61
330
5A
100
AcDbEntity
  8
0
 62
    28
100
AcDbVertex
100
AcDbPolyFaceMeshVertex
 10
-0.3333333432674408
 20
-0.0000000000000063
 30
0.5
 70
   192
  0
VERTEX
  5
62
330
5A
100
AcDbEntity
  8
0
 62
    28
100
AcDbVertex
100
AcDbPolyFaceMeshVertex
 10
-0.3333333432674408
 20
0.5
 30
0.5
 70
   192
  0
VERTEX
  5
63
330
5A
100
AcDbEntity
  8
0
 62
    28
100
AcDbVertex
100
AcDbPolyFaceMeshVertex
 10
-0.3333333432674408
 20
0.5
 30
-0.0000000000000007
 70
   192
  0
VERTEX
  5
64
330
5A
100
AcDbEntity
  8
0
 62
    28
100
AcDbVertex
100
AcDbPolyFaceMeshVertex
 10
-0.3333333432674408
 20
0.0104166669771075
 30
-0.4895833432674408
 70
   192
  0
VERTEX
  5
65
330
5A
100
AcDbEntity
  8
0
 62
    28
100
AcDbVertex
100
AcDbPolyFaceMeshVertex
 10
-0.3333333432674408
 20
0.0104166669771075
 30
-0.5416666865348816
 70
   192
  0
VERTEX
  5
66
330
5A
100
AcDbEntity
  8
0
 62
    28
100
AcDbVertex
100
AcDbPolyFaceMeshVertex
 10
-0.3333333432674408
 20
-0.0000000000000097
 30
-0.5416666865348816
 70
   192
  0
VERTEX
  5
67
330
5A
100
AcDbEntity
  8
0
 62
    28
100
AcDbVertex
100
AcDbPolyFaceMeshVertex
 10
-0.2135416716337204
 20
0.5
 30
0.368770033121109
 70
   192
  0
VERTEX
  5
68
330
5A
100
AcDbEntity
  8
0
 62
    28
100
AcDbVertex
100
AcDbPolyFaceMeshVertex
 10
-0.2070695757865906
 20
0.5
 30
0.3737362325191498
 70
   192
  0
VERTEX
  5
69
330
5A
100
AcDbEntity
  8
0
 62
    28
100
AcDbVertex
100
AcDbPolyFaceMeshVertex
 10
-0.2021033763885498
 20
0.5
 30
0.3802083432674408
 70
   192
  0
VERTEX
  5
6A
330
5A
100
AcDbEntity
  8
0
 62
    28
100
AcDbVertex
100
AcDbPolyFaceMeshVertex
 10
-0.1989814788103104
 20
0.5
 30
0.3877452313899994
 70
   192
  0
VERTEX
  5
6B
330
5A
100
AcDbEntity
  8
0
 62
    28
100
AcDbVertex
100
AcDbPolyFaceMeshVertex
 10
-0.1979166716337204
 20
0.5
 30
0.3958333432674408
 70
   192
  0
VERTEX
  5
6C
330
5A
100
AcDbEntity
  8
0
 62
    28
100
AcDbVertex
100
AcDbPolyFaceMeshVertex
 10
-0.1989814788103104
 20
0.5
 30
0.4039214253425598
 70
   192
  0
VERTEX
  5
6D
330
5A
100
AcDbEntity
  8
0
 62
    28
100
AcDbVertex
100
AcDbPolyFaceMeshVertex
 10
-0.2021033763885498
 20
0.5
 30
0.4114583432674408
 70
   192
  0
VERTEX
  5
6E
330
5A
100
AcDbEntity
  8
0
 62
    28
100
AcDbVertex
100
AcDbPolyFaceMeshVertex
 10
-0.2070695757865906
 20
0.5
 30
0.4179304242134094
 70
   192
  0
VERTEX
  5
6F
330
5A
100
AcDbEntity
  8
0
 62
    28
100
AcDbVertex
100
AcDbPolyFaceMeshVertex
 10
-0.2135416716337204
 20
0.5
 30
0.4228966236114502
 70
   192
  0
VERTEX
  5
70
330
5A
100
AcDbEntity
  8
0
 62
    28
100
AcDbVertex
100
AcDbPolyFaceMeshVertex
 10
-0.2210785746574402
 20
0.5
 30
0.4260185062885284
 70
   192
  0
VERTEX
  5
71
330
5A
100
AcDbEntity
  8
0
 62
    28
100
AcDbVertex
100
AcDbPolyFaceMeshVertex
 10
-0.2291666716337204
 20
0.5
 30
0.4270833432674408
 70
   192
  0
VERTEX
  5
72
330
5A
100
AcDbEntity
  8
0
 62
    28
100
AcDbVertex
100
AcDbPolyFaceMeshVertex
 10
-0.2372547686100006
 20
0.5
 30
0.4260185062885284
 70
   192
  0
VERTEX
  5
73
330
5A
100
AcDbEntity
  8
0
 62
    28
100
AcDbVertex
100
AcDbPolyFaceMeshVertex
 10
-0.2447916716337204
 20
0.5
 30
0.4228966236114502
 70
   192
  0
VERTEX
  5
74
330
5A
100
AcDbEntity
  8
0
 62
    28
100
AcDbVertex
100
AcDbPolyFaceMeshVertex
 10
-0.2512637674808502
 20
0.5
 30
0.4179304242134094
 70
   192
  0
VERTEX
  5
75
330
5A
100
AcDbEntity
  8
0
 62
    28
100
AcDbVertex
100
AcDbPolyFaceMeshVertex
 10
-0.256229966878891
 20
0.5
 30
0.4114583432674408
 70
   192
  0
VERTEX
  5
76
330
5A
100
AcDbEntity
  8
0
 62
    28
100
AcDbVertex
100
AcDbPolyFaceMeshVertex
 10
-0.2593518495559692
 20
0.5
 30
0.4039214253425598
 70
   192
  0
VERTEX
  5
77
330
5A
100
AcDbEntity
  8
0
 62
    28
100
AcDbVertex
100
AcDbPolyFaceMeshVertex
 10
-0.2604166567325592
 20
0.5
 30
0.3958333432674408
 70
   192
  0
VERTEX
  5
78
330
5A
100
AcDbEntity
  8
0
 62
    28
100
AcDbVertex
100
AcDbPolyFaceMeshVertex
 10
-0.2593518495559692
 20
0.5
 30
0.3877452313899994
 70
   192
  0
VERTEX
  5
79
330
5A
100
AcDbEntity
  8
0
 62
    28
100
AcDbVertex
100
AcDbPolyFaceMeshVertex
 10
-0.256229966878891
 20
0.5
 30
0.3802083432674408
 70
   192
  0
VERTEX
  5
7A
330
5A
100
AcDbEntity
  8
0
 62
    28
100
AcDbVertex
100
AcDbPolyFaceMeshVertex
 10
-0.2512637674808502
 20
0.5
 30
0.3737362325191498
 70
   192
  0
VERTEX
  5
7B
330
5A
100
AcDbEntity
  8
0
 62
    28
100
AcDbVertex
100
AcDbPolyFaceMeshVertex
 10
-0.2447916716337204
 20
0.5
 30
0.368770033121109
 70
   192
  0
VERTEX
  5
7C
330
5A
100
AcDbEntity
  8
0
 62
    28
100
AcDbVertex
100
AcDbPolyFaceMeshVertex
 10
-0.2372547686100006
 20
0.5
 30
0.3656481504440308
 70
   192
  0
VERTEX
  5
7D
330
5A
100
AcDbEntity
  8
0
 62
    28
100
AcDbVertex
100
AcDbPolyFaceMeshVertex
 10
-0.2291666716337204
 20
0.5
 30
0.3645833432674408
 70
   192
  0
VERTEX
  5
7E
330
5A
100
AcDbEntity
  8
0
 62
    28
100
AcDbVertex
100
AcDbPolyFaceMeshVertex
 10
-0.2210785746574402
 20
0.5
 30
0.3656481504440308
 70
   192
  0
VERTEX
  5
7F
330
5A
100
AcDbEntity
  8
0
 62
    28
100
AcDbVertex
100
AcDbPolyFaceMeshVertex
 10
0.2070695757865906
 20
0.5
 30
0.3737362325191498
 70
   192
  0
VERTEX
  5
80
330
5A
100
AcDbEntity
  8
0
 62
    28
100
AcDbVertex
100
AcDbPolyFaceMeshVertex
 10
0.2021033763885498
 20
0.5
 30
0.3802083432674408
 70
   192
  0
VERTEX
  5
81
330
5A
100
AcDbEntity
  8
0
 62
    28
100
AcDbVertex
100
AcDbPolyFaceMeshVertex
 10
0.1989814788103104
 20
0.5
 30
0.3877452313899994
 70
   192
  0
VERTEX
  5
82
330
5A
100
AcDbEntity
  8
0
 62
    28
100
AcDbVertex
100
AcDbPolyFaceMeshVertex
 10
0.1979166716337204
 20
0.5
 30
0.3958333432674408
 70
   192
  0
VERTEX
  5
83
330
5A
100
AcDbEntity
  8
0
 62
    28
100
AcDbVertex
100
AcDbPolyFaceMeshVertex
 10
0.1989814788103104
 20
0.5
 30
0.4039214253425598
 70
   192
  0
VERTEX
  5
84
330
5A
100
AcDbEntity
  8
0
 62
    28
100
AcDbVertex
100
AcDbPolyFaceMeshVertex
 10
0.2021033763885498
 20
0.5
 30
0.4114583432674408
 70
   192
  0
VERTEX
  5
85
330
5A
100
AcDbEntity
  8
0
 62
    28
100
AcDbVertex
100
AcDbPolyFaceMeshVertex
 10
0.2070695757865906
 20
0.5
 30
0.4179304242134094
 70
   192
  0
VERTEX
  5
86
330
5A
100
AcDbEntity
  8
0
 62
    28
100
AcDbVertex
100
AcDbPolyFaceMeshVertex
 10
0.2135416716337204
 20
0.5
 30
0.4228966236114502
 70
   192
  0
VERTEX
  5
87
330
5A
100
AcDbEntity
  8
0
 62
    28
100
AcDbVertex
100
AcDbPolyFaceMeshVertex
 10
0.3333333432674408
 20
0.5
 30
0.5
 70
   192
  0
VERTEX
  5
88
330
5A
100
AcDbEntity
  8
0
 62
    28
100
AcDbVertex
100
AcDbPolyFaceMeshVertex
 10
-0.3333333432674408
 20
0.5
 30
0.5
 70
   192
  0
VERTEX
  5
89
330
5A
100
AcDbEntity
  8
0
 62
    28
100
AcDbVertex
100
AcDbPolyFaceMeshVertex
 10
-0.3333333432674408
 20
0.5
 30
-0.0000000000000007
 70
   192
  0
VERTEX
  5
8A
330
5A
100
AcDbEntity
  8
0
 62
    28
100
AcDbVertex
100
AcDbPolyFaceMeshVertex
 10
0.2135416716337204
 20
0.5
 30
0.368770033121109
 70
   192
  0
VERTEX
  5
8B
330
5A
100
AcDbEntity
  8
0
 62
    28
100
AcDbVertex
100
AcDbPolyFaceMeshVertex
 10
0.2210785746574402
 20
0.5
 30
0.4260185062885284
 70
   192
  0
VERTEX
  5
8C
330
5A
100
AcDbEntity
  8
0
 62
    28
100
AcDbVertex
100
AcDbPolyFaceMeshVertex
 10
0.2291666716337204
 20
0.5
 30
0.4270833432674408
 70
   192
  0
VERTEX
  5
8D
330
5A
100
AcDbEntity
  8
0
 62
    28
100
AcDbVertex
100
AcDbPolyFaceMeshVertex
 10
0.2372547686100006
 20
0.5
 30
0.4260185062885284
 70
   192
  0
VERTEX
  5
8E
330
5A
100
AcDbEntity
  8
0
 62
    28
100
AcDbVertex
100
AcDbPolyFaceMeshVertex
 10
0.2447916716337204
 20
0.5
 30
0.4228966236114502
 70
   192
  0
VERTEX
  5
8F
330
5A
100
AcDbEntity
  8
0
 62
    28
100
AcDbVertex
100
AcDbPolyFaceMeshVertex
 10
0.2512637674808502
 20
0.5
 30
0.4179304242134094
 70
   192
  0
VERTEX
  5
90
330
5A
100
AcDbEntity
  8
0
 62
    28
100
AcDbVertex
100
AcDbPolyFaceMeshVertex
 10
0.256229966878891
 20
0.5
 30
0.4114583432674408
 70
   192
  0
VERTEX
  5
91
330
5A
100
AcDbEntity
  8
0
 62
    28
100
AcDbVertex
100
AcDbPolyFaceMeshVertex
 10
0.2593518495559692
 20
0.5
 30
0.4039214253425598
 70
   192
  0
VERTEX
  5
92
330
5A
100
AcDbEntity
  8
0
 62
    28
100
AcDbVertex
100
AcDbPolyFaceMeshVertex
 10
0.2604166567325592
 20
0.5
 30
0.3958333432674408
 70
   192
  0
VERTEX
  5
93
330
5A
100
AcDbEntity
  8
0
 62
    28
100
AcDbVertex
100
AcDbPolyFaceMeshVertex
 10
0.2593518495559692
 20
0.5
 30
0.3877452313899994
 70
   192
  0
VERTEX
  5
94
330
5A
100
AcDbEntity
  8
0
 62
    28
100
AcDbVertex
100
AcDbPolyFaceMeshVertex
 10
0.3333333432674408
 20
0.5
 30
-0.0000000000000007
 70
   192
  0
VERTEX
  5
95
330
5A
100
AcDbEntity
  8
0
 62
    28
100
AcDbVertex
100
AcDbPolyFaceMeshVertex
 10
0.2210785746574402
 20
0.5
 30
0.3656481504440308
 70
   192
  0
VERTEX
  5
96
330
5A
100
AcDbEntity
  8
0
 62
    28
100
AcDbVertex
100
AcDbPolyFaceMeshVertex
 10
0.2291666716337204
 20
0.5
 30
0.3645833432674408
 70
   192
  0
VERTEX
  5
97
330
5A
100
AcDbEntity
  8
0
 62
    28
100
AcDbVertex
100
AcDbPolyFaceMeshVertex
 10
0.2372547686100006
 20
0.5
 30
0.3656481504440308
 70
   192
  0
VERTEX
  5
98
330
5A
100
AcDbEntity
  8
0
 62
    28
100
AcDbVertex
100
AcDbPolyFaceMeshVertex
 10
0.2447916716337204
 20
0.5
 30
0.368770033121109
 70
   192
  0
VERTEX
  5
99
330
5A
100
AcDbEntity
  8
0
 62
    28
100
AcDbVertex
100
AcDbPolyFaceMeshVertex
 10
0.2512637674808502
 20
0.5
 30
0.3737362325191498
 70
   192
  0
VERTEX
  5
9A
330
5A
100
AcDbEntity
  8
0
 62
    28
100
AcDbVertex
100
AcDbPolyFaceMeshVertex
 10
0.256229966878891
 20
0.5
 30
0.3802083432674408
 70
   192
  0
VERTEX
  5
9B
330
5A
100
AcDbEntity
  8
0
 62
    28
100
AcDbVertex
100
AcDbPolyFaceMeshVertex
 10
0.3333333432674408
 20
-0.0000000000000131
 30
0.5
 70
   192
  0
VERTEX
  5
9C
330
5A
100
AcDbEntity
  8
0
 62
    28
100
AcDbVertex
100
AcDbPolyFaceMeshVertex
 10
0.3333333432674408
 20
0.5
 30
0.5
 70
   192
  0
VERTEX
  5
9D
330
5A
100
AcDbEntity
  8
0
 62
    28
100
AcDbVertex
100
AcDbPolyFaceMeshVertex
 10
-0.3333333432674408
 20
0.5
 30
0.5
 70
   192
  0
VERTEX
  5
9E
330
5A
100
AcDbEntity
  8
0
 62
    28
100
AcDbVertex
100
AcDbPolyFaceMeshVertex
 10
-0.3333333432674408
 20
-0.0000000000000063
 30
0.5
 70
   192
  0
VERTEX
  5
9F
330
5A
100
AcDbEntity
  8
0
 62
    28
100
AcDbVertex
100
AcDbPolyFaceMeshVertex
 10
0.3333333432674408
 20
-0.0000000000000165
 30
-0.5416666865348816
 70
   192
  0
VERTEX
  5
A0
330
5A
100
AcDbEntity
  8
0
 62
    28
100
AcDbVertex
100
AcDbPolyFaceMeshVertex
 10
0.3333333432674408
 20
-0.0000000000000132
 30
0.5
 70
   192
  0
VERTEX
  5
A1
330
5A
100
AcDbEntity
  8
0
 62
    28
100
AcDbVertex
100
AcDbPolyFaceMeshVertex
 10
-0.3333333432674408
 20
-0.0000000000000063
 30
0.5
 70
   192
  0
VERTEX
  5
A2
330
5A
100
AcDbEntity
  8
0
 62
    28
100
AcDbVertex
100
AcDbPolyFaceMeshVertex
 10
-0.3333333432674408
 20
-0.0000000000000097
 30
-0.5416666865348816
 70
   192
  0
VERTEX
  5
A3
330
5A
100
AcDbEntity
  8
0
 62
    28
100
AcDbVertex
100
AcDbPolyFaceMeshVertex
 10
0.3333333432674408
 20
0.0104166669771075
 30
-0.5416666865348816
 70
   192
  0
VERTEX
  5
A4
330
5A
100
AcDbEntity
  8
0
 62
    28
100
AcDbVertex
100
AcDbPolyFaceMeshVertex
 10
0.3333333432674408
 20
-0.0000000000000165
 30
-0.5416666865348816
 70
   192
  0
VERTEX
  5
A5
330
5A
100
AcDbEntity
  8
0
 62
    28
100
AcDbVertex
100
AcDbPolyFaceMeshVertex
 10
-0.3333333432674408
 20
-0.0000000000000097
 30
-0.5416666865348816
 70
   192
  0
VERTEX
  5
A6
330
5A
100
AcDbEntity
  8
0
 62
    28
100
AcDbVertex
100
AcDbPolyFaceMeshVertex
 10
-0.3333333432674408
 20
0.0104166669771075
 30
-0.5416666865348816
 70
   192
  0
VERTEX
  5
A7
330
5A
100
AcDbEntity
  8
0
 62
    28
100
AcDbVertex
100
AcDbPolyFaceMeshVertex
 10
0.3333333432674408
 20
0.0104166669771075
 30
-0.4895833432674408
 70
   192
  0
VERTEX
  5
A8
330
5A
100
AcDbEntity
  8
0
 62
    28
100
AcDbVertex
100
AcDbPolyFaceMeshVertex
 10
0.3333333432674408
 20
0.0104166669771075
 30
-0.5416666865348816
 70
   192
  0
VERTEX
  5
A9
330
5A
100
AcDbEntity
  8
0
 62
    28
100
AcDbVertex
100
AcDbPolyFaceMeshVertex
 10
-0.3333333432674408
 20
0.0104166669771075
 30
-0.5416666865348816
 70
   192
  0
VERTEX
  5
AA
330
5A
100
AcDbEntity
  8
0
 62
    28
100
AcDbVertex
100
AcDbPolyFaceMeshVertex
 10
-0.3333333432674408
 20
0.0104166669771075
 30
-0.4895833432674408
 70
   192
  0
VERTEX
  5
AB
330
5A
100
AcDbEntity
  8
0
 62
    28
100
AcDbVertex
100
AcDbPolyFaceMeshVertex
 10
0.3333333432674408
 20
0.5
 30
-0.0000000000000008
 70
   192
  0
VERTEX
  5
AC
330
5A
100
AcDbEntity
  8
0
 62
    28
100
AcDbVertex
100
AcDbPolyFaceMeshVertex
 10
0.3333333432674408
 20
0.0104166669771075
 30
-0.4895833432674408
 70
   192
  0
VERTEX
  5
AD
330
5A
100
AcDbEntity
  8
0
 62
    28
100
AcDbVertex
100
AcDbPolyFaceMeshVertex
 10
-0.3333333432674408
 20
0.0104166669771075
 30
-0.4895833432674408
 70
   192
  0
VERTEX
  5
AE
330
5A
100
AcDbEntity
  8
0
 62
    28
100
AcDbVertex
100
AcDbPolyFaceMeshVertex
 10
-0.3333333432674408
 20
0.5
 30
-0.0000000000000008
 70
   192
  0
VERTEX
  5
AF
330
5A
100
AcDbEntity
  8
0
 62
    28
100
AcDbVertex
100
AcDbPolyFaceMeshVertex
 10
0.1979166716337204
 20
0.5833333134651184
 30
0.3958333432674408
 70
   192
  0
VERTEX
  5
B0
330
5A
100
AcDbEntity
  8
0
 62
    28
100
AcDbVertex
100
AcDbPolyFaceMeshVertex
 10
0.1989814788103104
 20
0.5833333134651184
 30
0.4039214253425598
 70
   192
  0
VERTEX
  5
B1
330
5A
100
AcDbEntity
  8
0
 62
    28
100
AcDbVertex
100
AcDbPolyFaceMeshVertex
 10
0.2021033763885498
 20
0.5833333134651184
 30
0.4114583432674408
 70
   192
  0
VERTEX
  5
B2
330
5A
100
AcDbEntity
  8
0
 62
    28
100
AcDbVertex
100
AcDbPolyFaceMeshVertex
 10
0.2070695757865906
 20
0.5833333134651184
 30
0.4179304242134094
 70
   192
  0
VERTEX
  5
B3
330
5A
100
AcDbEntity
  8
0
 62
    28
100
AcDbVertex
100
AcDbPolyFaceMeshVertex
 10
0.2135416716337204
 20
0.5833333134651184
 30
0.4228966236114502
 70
   192
  0
VERTEX
  5
B4
330
5A
100
AcDbEntity
  8
0
 62
    28
100
AcDbVertex
100
AcDbPolyFaceMeshVertex
 10
0.2210785746574402
 20
0.5833333134651184
 30
0.4260185062885284
 70
   192
  0
VERTEX
  5
B5
330
5A
100
AcDbEntity
  8
0
 62
    28
100
AcDbVertex
100
AcDbPolyFaceMeshVertex
 10
0.2291666716337204
 20
0.5833333134651184
 30
0.4270833432674408
 70
   192
  0
VERTEX
  5
B6
330
5A
100
AcDbEntity
  8
0
 62
    28
100
AcDbVertex
100
AcDbPolyFaceMeshVertex
 10
0.2372547686100006
 20
0.5833333134651184
 30
0.4260185062885284
 70
   192
  0
VERTEX
  5
B7
330
5A
100
AcDbEntity
  8
0
 62
    28
100
AcDbVertex
100
AcDbPolyFaceMeshVertex
 10
0.2447916716337204
 20
0.5833333134651184
 30
0.4228966236114502
 70
   192
  0
VERTEX
  5
B8
330
5A
100
AcDbEntity
  8
0
 62
    28
100
AcDbVertex
100
AcDbPolyFaceMeshVertex
 10
0.2512637674808502
 20
0.5833333134651184
 30
0.4179304242134094
 70
   192
  0
VERTEX
  5
B9
330
5A
100
AcDbEntity
  8
0
 62
    28
100
AcDbVertex
100
AcDbPolyFaceMeshVertex
 10
0.256229966878891
 20
0.5833333134651184
 30
0.4114583432674408
 70
   192
  0
VERTEX
  5
BA
330
5A
100
AcDbEntity
  8
0
 62
    28
100
AcDbVertex
100
AcDbPolyFaceMeshVertex
 10
0.2593518495559692
 20
0.5833333134651184
 30
0.4039214253425598
 70
   192
  0
VERTEX
  5
BB
330
5A
100
AcDbEntity
  8
0
 62
    28
100
AcDbVertex
100
AcDbPolyFaceMeshVertex
 10
0.2604166567325592
 20
0.5833333134651184
 30
0.3958333432674408
 70
   192
  0
VERTEX
  5
BC
330
5A
100
AcDbEntity
  8
0
 62
    28
100
AcDbVertex
100
AcDbPolyFaceMeshVertex
 10
0.2593518495559692
 20
0.5833333134651184
 30
0.3877452313899994
 70
   192
  0
VERTEX
  5
BD
330
5A
100
AcDbEntity
  8
0
 62
    28
100
AcDbVertex
100
AcDbPolyFaceMeshVertex
 10
0.256229966878891
 20
0.5833333134651184
 30
0.3802083432674408
 70
   192
  0
VERTEX
  5
BE
330
5A
100
AcDbEntity
  8
0
 62
    28
100
AcDbVertex
100
AcDbPolyFaceMeshVertex
 10
0.2512637674808502
 20
0.5833333134651184
 30
0.3737362325191498
 70
   192
  0
VERTEX
  5
BF
330
5A
100
AcDbEntity
  8
0
 62
    28
100
AcDbVertex
100
AcDbPolyFaceMeshVertex
 10
0.2447916716337204
 20
0.5833333134651184
 30
0.368770033121109
 70
   192
  0
VERTEX
  5
C0
330
5A
100
AcDbEntity
  8
0
 62
    28
100
AcDbVertex
100
AcDbPolyFaceMeshVertex
 10
0.2372547686100006
 20
0.5833333134651184
 30
0.3656481504440308
 70
   192
  0
VERTEX
  5
C1
330
5A
100
AcDbEntity
  8
0
 62
    28
100
AcDbVertex
100
AcDbPolyFaceMeshVertex
 10
0.2291666716337204
 20
0.5833333134651184
 30
0.3645833432674408
 70
   192
  0
VERTEX
  5
C2
330
5A
100
AcDbEntity
  8
0
 62
    28
100
AcDbVertex
100
AcDbPolyFaceMeshVertex
 10
0.2210785746574402
 20
0.5833333134651184
 30
0.3656481504440308
 70
   192
  0
VERTEX
  5
C3
330
5A
100
AcDbEntity
  8
0
 62
    28
100
AcDbVertex
100
AcDbPolyFaceMeshVertex
 10
0.2135416716337204
 20
0.5833333134651184
 30
0.368770033121109
 70
   192
  0
VERTEX
  5
C4
330
5A
100
AcDbEntity
  8
0
 62
    28
100
AcDbVertex
100
AcDbPolyFaceMeshVertex
 10
0.2070695757865906
 20
0.5833333134651184
 30
0.3737362325191498
 70
   192
  0
VERTEX
  5
C5
330
5A
100
AcDbEntity
  8
0
 62
    28
100
AcDbVertex
100
AcDbPolyFaceMeshVertex
 10
0.2021033763885498
 20
0.5833333134651184
 30
0.3802083432674408
 70
   192
  0
VERTEX
  5
C6
330
5A
100
AcDbEntity
  8
0
 62
    28
100
AcDbVertex
100
AcDbPolyFaceMeshVertex
 10
0.1989814788103104
 20
0.5833333134651184
 30
0.3877452313899994
 70
   192
  0
VERTEX
  5
C7
330
5A
100
AcDbEntity
  8
0
 62
    28
100
AcDbVertex
100
AcDbPolyFaceMeshVertex
 10
0.2291666716337204
 20
0.5
 30
0.3645833432674408
 70
   192
  0
VERTEX
  5
C8
330
5A
100
AcDbEntity
  8
0
 62
    28
100
AcDbVertex
100
AcDbPolyFaceMeshVertex
 10
0.2210785746574402
 20
0.5
 30
0.3656481504440308
 70
   192
  0
VERTEX
  5
C9
330
5A
100
AcDbEntity
  8
0
 62
    28
100
AcDbVertex
100
AcDbPolyFaceMeshVertex
 10
0.2135416716337204
 20
0.5
 30
0.368770033121109
 70
   192
  0
VERTEX
  5
CA
330
5A
100
AcDbEntity
  8
0
 62
    28
100
AcDbVertex
100
AcDbPolyFaceMeshVertex
 10
0.2070695757865906
 20
0.5
 30
0.3737362325191498
 70
   192
  0
VERTEX
  5
CB
330
5A
100
AcDbEntity
  8
0
 62
    28
100
AcDbVertex
100
AcDbPolyFaceMeshVertex
 10
0.2021033763885498
 20
0.5
 30
0.3802083432674408
 70
   192
  0
VERTEX
  5
CC
330
5A
100
AcDbEntity
  8
0
 62
    28
100
AcDbVertex
100
AcDbPolyFaceMeshVertex
 10
0.1989814788103104
 20
0.5
 30
0.3877452313899994
 70
   192
  0
VERTEX
  5
CD
330
5A
100
AcDbEntity
  8
0
 62
    28
100
AcDbVertex
100
AcDbPolyFaceMeshVertex
 10
0.1979166716337204
 20
0.5
 30
0.3958333432674408
 70
   192
  0
VERTEX
  5
CE
330
5A
100
AcDbEntity
  8
0
 62
    28
100
AcDbVertex
100
AcDbPolyFaceMeshVertex
 10
0.1989814788103104
 20
0.5
 30
0.4039214253425598
 70
   192
  0
VERTEX
  5
CF
330
5A
100
AcDbEntity
  8
0
 62
    28
100
AcDbVertex
100
AcDbPolyFaceMeshVertex
 10
0.2021033763885498
 20
0.5
 30
0.4114583432674408
 70
   192
  0
VERTEX
  5
D0
330
5A
100
AcDbEntity
  8
0
 62
    28
100
AcDbVertex
100
AcDbPolyFaceMeshVertex
 10
0.2070695757865906
 20
0.5
 30
0.4179304242134094
 70
   192
  0
VERTEX
  5
D1
330
5A
100
AcDbEntity
  8
0
 62
    28
100
AcDbVertex
100
AcDbPolyFaceMeshVertex
 10
0.2135416716337204
 20
0.5
 30
0.4228966236114502
 70
   192
  0
VERTEX
  5
D2
330
5A
100
AcDbEntity
  8
0
 62
    28
100
AcDbVertex
100
AcDbPolyFaceMeshVertex
 10
0.2210785746574402
 20
0.5
 30
0.4260185062885284
 70
   192
  0
VERTEX
  5
D3
330
5A
100
AcDbEntity
  8
0
 62
    28
100
AcDbVertex
100
AcDbPolyFaceMeshVertex
 10
0.2291666716337204
 20
0.5
 30
0.4270833432674408
 70
   192
  0
VERTEX
  5
D4
330
5A
100
AcDbEntity
  8
0
 62
    28
100
AcDbVertex
100
AcDbPolyFaceMeshVertex
 10
0.2291666716337204
 20
0.5833333134651184
 30
0.4270833432674408
 70
   192
  0
VERTEX
  5
D5
330
5A
100
AcDbEntity
  8
0
 62
    28
100
AcDbVertex
100
AcDbPolyFaceMeshVertex
 10
0.2210785746574402
 20
0.5833333134651184
 30
0.4260185062885284
 70
   192
  0
VERTEX
  5
D6
330
5A
100
AcDbEntity
  8
0
 62
    28
100
AcDbVertex
100
AcDbPolyFaceMeshVertex
 10
0.2135416716337204
 20
0.5833333134651184
 30
0.4228966236114502
 70
   192
  0
VERTEX
  5
D7
330
5A
100
AcDbEntity
  8
0
 62
    28
100
AcDbVertex
100
AcDbPolyFaceMeshVertex
 10
0.2070695757865906
 20
0.5833333134651184
 30
0.4179304242134094
 70
   192
  0
VERTEX
  5
D8
330
5A
100
AcDbEntity
  8
0
 62
    28
100
AcDbVertex
100
AcDbPolyFaceMeshVertex
 10
0.2021033763885498
 20
0.5833333134651184
 30
0.4114583432674408
 70
   192
  0
VERTEX
  5
D9
330
5A
100
AcDbEntity
  8
0
 62
    28
100
AcDbVertex
100
AcDbPolyFaceMeshVertex
 10
0.1989814788103104
 20
0.5833333134651184
 30
0.4039214253425598
 70
   192
  0
VERTEX
  5
DA
330
5A
100
AcDbEntity
  8
0
 62
    28
100
AcDbVertex
100
AcDbPolyFaceMeshVertex
 10
0.1979166716337204
 20
0.5833333134651184
 30
0.3958333432674408
 70
   192
  0
VERTEX
  5
DB
330
5A
100
AcDbEntity
  8
0
 62
    28
100
AcDbVertex
100
AcDbPolyFaceMeshVertex
 10
0.1989814788103104
 20
0.5833333134651184
 30
0.3877452313899994
 70
   192
  0
VERTEX
  5
DC
330
5A
100
AcDbEntity
  8
0
 62
    28
100
AcDbVertex
100
AcDbPolyFaceMeshVertex
 10
0.2021033763885498
 20
0.5833333134651184
 30
0.3802083432674408
 70
   192
  0
VERTEX
  5
DD
330
5A
100
AcDbEntity
  8
0
 62
    28
100
AcDbVertex
100
AcDbPolyFaceMeshVertex
 10
0.2070695757865906
 20
0.5833333134651184
 30
0.3737362325191498
 70
   192
  0
VERTEX
  5
DE
330
5A
100
AcDbEntity
  8
0
 62
    28
100
AcDbVertex
100
AcDbPolyFaceMeshVertex
 10
0.2135416716337204
 20
0.5833333134651184
 30
0.368770033121109
 70
   192
  0
VERTEX
  5
DF
330
5A
100
AcDbEntity
  8
0
 62
    28
100
AcDbVertex
100
AcDbPolyFaceMeshVertex
 10
0.2210785746574402
 20
0.5833333134651184
 30
0.3656481504440308
 70
   192
  0
VERTEX
  5
E0
330
5A
100
AcDbEntity
  8
0
 62
    28
100
AcDbVertex
100
AcDbPolyFaceMeshVertex
 10
0.2291666716337204
 20
0.5833333134651184
 30
0.3645833432674408
 70
   192
  0
VERTEX
  5
E1
330
5A
100
AcDbEntity
  8
0
 62
    28
100
AcDbVertex
100
AcDbPolyFaceMeshVertex
 10
0.2372547686100006
 20
0.5833333134651184
 30
0.3656481504440308
 70
   192
  0
VERTEX
  5
E2
330
5A
100
AcDbEntity
  8
0
 62
    28
100
AcDbVertex
100
AcDbPolyFaceMeshVertex
 10
0.2447916716337204
 20
0.5833333134651184
 30
0.368770033121109
 70
   192
  0
VERTEX
  5
E3
330
5A
100
AcDbEntity
  8
0
 62
    28
100
AcDbVertex
100
AcDbPolyFaceMeshVertex
 10
0.2512637674808502
 20
0.5833333134651184
 30
0.3737362325191498
 70
   192
  0
VERTEX
  5
E4
330
5A
100
AcDbEntity
  8
0
 62
    28
100
AcDbVertex
100
AcDbPolyFaceMeshVertex
 10
0.256229966878891
 20
0.5833333134651184
 30
0.3802083432674408
 70
   192
  0
VERTEX
  5
E5
330
5A
100
AcDbEntity
  8
0
 62
    28
100
AcDbVertex
100
AcDbPolyFaceMeshVertex
 10
0.2593518495559692
 20
0.5833333134651184
 30
0.3877452313899994
 70
   192
  0
VERTEX
  5
E6
330
5A
100
AcDbEntity
  8
0
 62
    28
100
AcDbVertex
100
AcDbPolyFaceMeshVertex
 10
0.2604166567325592
 20
0.5833333134651184
 30
0.3958333432674408
 70
   192
  0
VERTEX
  5
E7
330
5A
100
AcDbEntity
  8
0
 62
    28
100
AcDbVertex
100
AcDbPolyFaceMeshVertex
 10
0.2593518495559692
 20
0.5833333134651184
 30
0.4039214253425598
 70
   192
  0
VERTEX
  5
E8
330
5A
100
AcDbEntity
  8
0
 62
    28
100
AcDbVertex
100
AcDbPolyFaceMeshVertex
 10
0.256229966878891
 20
0.5833333134651184
 30
0.4114583432674408
 70
   192
  0
VERTEX
  5
E9
330
5A
100
AcDbEntity
  8
0
 62
    28
100
AcDbVertex
100
AcDbPolyFaceMeshVertex
 10
0.2512637674808502
 20
0.5833333134651184
 30
0.4179304242134094
 70
   192
  0
VERTEX
  5
EA
330
5A
100
AcDbEntity
  8
0
 62
    28
100
AcDbVertex
100
AcDbPolyFaceMeshVertex
 10
0.2447916716337204
 20
0.5833333134651184
 30
0.4228966236114502
 70
   192
  0
VERTEX
  5
EB
330
5A
100
AcDbEntity
  8
0
 62
    28
100
AcDbVertex
100
AcDbPolyFaceMeshVertex
 10
0.2372547686100006
 20
0.5833333134651184
 30
0.4260185062885284
 70
   192
  0
VERTEX
  5
EC
330
5A
100
AcDbEntity
  8
0
 62
    28
100
AcDbVertex
100
AcDbPolyFaceMeshVertex
 10
0.2291666716337204
 20
0.5833333134651184
 30
0.4270833432674408
 70
   192
  0
VERTEX
  5
ED
330
5A
100
AcDbEntity
  8
0
 62
    28
100
AcDbVertex
100
AcDbPolyFaceMeshVertex
 10
0.2291666716337204
 20
0.5
 30
0.4270833432674408
 70
   192
  0
VERTEX
  5
EE
330
5A
100
AcDbEntity
  8
0
 62
    28
100
AcDbVertex
100
AcDbPolyFaceMeshVertex
 10
0.2372547686100006
 20
0.5
 30
0.4260185062885284
 70
   192
  0
VERTEX
  5
EF
330
5A
100
AcDbEntity
  8
0
 62
    28
100
AcDbVertex
100
AcDbPolyFaceMeshVertex
 10
0.2447916716337204
 20
0.5
 30
0.4228966236114502
 70
   192
  0
VERTEX
  5
F0
330
5A
100
AcDbEntity
  8
0
 62
    28
100
AcDbVertex
100
AcDbPolyFaceMeshVertex
 10
0.2512637674808502
 20
0.5
 30
0.4179304242134094
 70
   192
  0
VERTEX
  5
F1
330
5A
100
AcDbEntity
  8
0
 62
    28
100
AcDbVertex
100
AcDbPolyFaceMeshVertex
 10
0.256229966878891
 20
0.5
 30
0.4114583432674408
 70
   192
  0
VERTEX
  5
F2
330
5A
100
AcDbEntity
  8
0
 62
    28
100
AcDbVertex
100
AcDbPolyFaceMeshVertex
 10
0.2593518495559692
 20
0.5
 30
0.4039214253425598
 70
   192
  0
VERTEX
  5
F3
330
5A
100
AcDbEntity
  8
0
 62
    28
100
AcDbVertex
100
AcDbPolyFaceMeshVertex
 10
0.2604166567325592
 20
0.5
 30
0.3958333432674408
 70
   192
  0
VERTEX
  5
F4
330
5A
100
AcDbEntity
  8
0
 62
    28
100
AcDbVertex
100
AcDbPolyFaceMeshVertex
 10
0.2593518495559692
 20
0.5
 30
0.3877452313899994
 70
   192
  0
VERTEX
  5
F5
330
5A
100
AcDbEntity
  8
0
 62
    28
100
AcDbVertex
100
AcDbPolyFaceMeshVertex
 10
0.256229966878891
 20
0.5
 30
0.3802083432674408
 70
   192
  0
VERTEX
  5
F6
330
5A
100
AcDbEntity
  8
0
 62
    28
100
AcDbVertex
100
AcDbPolyFaceMeshVertex
 10
0.2512637674808502
 20
0.5
 30
0.3737362325191498
 70
   192
  0
VERTEX
  5
F7
330
5A
100
AcDbEntity
  8
0
 62
    28
100
AcDbVertex
100
AcDbPolyFaceMeshVertex
 10
0.2447916716337204
 20
0.5
 30
0.368770033121109
 70
   192
  0
VERTEX
  5
F8
330
5A
100
AcDbEntity
  8
0
 62
    28
100
AcDbVertex
100
AcDbPolyFaceMeshVertex
 10
0.2372547686100006
 20
0.5
 30
0.3656481504440308
 70
   192
  0
VERTEX
  5
F9
330
5A
100
AcDbEntity
  8
0
 62
    28
100
AcDbVertex
100
AcDbPolyFaceMeshVertex
 10
-0.2604166567325592
 20
0.5833333134651184
 30
0.3958333432674408
 70
   192
  0
VERTEX
  5
FA
330
5A
100
AcDbEntity
  8
0
 62
    28
100
AcDbVertex
100
AcDbPolyFaceMeshVertex
 10
-0.2593518495559692
 20
0.5833333134651184
 30
0.4039214253425598
 70
   192
  0
VERTEX
  5
FB
330
5A
100
AcDbEntity
  8
0
 62
    28
100
AcDbVertex
100
AcDbPolyFaceMeshVertex
 10
-0.256229966878891
 20
0.5833333134651184
 30
0.4114583432674408
 70
   192
  0
VERTEX
  5
FC
330
5A
100
AcDbEntity
  8
0
 62
    28
100
AcDbVertex
100
AcDbPolyFaceMeshVertex
 10
-0.2512637674808502
 20
0.5833333134651184
 30
0.4179304242134094
 70
   192
  0
VERTEX
  5
FD
330
5A
100
AcDbEntity
  8
0
 62
    28
100
AcDbVertex
100
AcDbPolyFaceMeshVertex
 10
-0.2447916716337204
 20
0.5833333134651184
 30
0.4228966236114502
 70
   192
  0
VERTEX
  5
FE
330
5A
100
AcDbEntity
  8
0
 62
    28
100
AcDbVertex
100
AcDbPolyFaceMeshVertex
 10
-0.2372547686100006
 20
0.5833333134651184
 30
0.4260185062885284
 70
   192
  0
VERTEX
  5
FF
330
5A
100
AcDbEntity
  8
0
 62
    28
100
AcDbVertex
100
AcDbPolyFaceMeshVertex
 10
-0.2291666716337204
 20
0.5833333134651184
 30
0.4270833432674408
 70
   192
  0
VERTEX
  5
100
330
5A
100
AcDbEntity
  8
0
 62
    28
100
AcDbVertex
100
AcDbPolyFaceMeshVertex
 10
-0.2210785746574402
 20
0.5833333134651184
 30
0.4260185062885284
 70
   192
  0
VERTEX
  5
101
330
5A
100
AcDbEntity
  8
0
 62
    28
100
AcDbVertex
100
AcDbPolyFaceMeshVertex
 10
-0.2135416716337204
 20
0.5833333134651184
 30
0.4228966236114502
 70
   192
  0
VERTEX
  5
102
330
5A
100
AcDbEntity
  8
0
 62
    28
100
AcDbVertex
100
AcDbPolyFaceMeshVertex
 10
-0.2070695757865906
 20
0.5833333134651184
 30
0.4179304242134094
 70
   192
  0
VERTEX
  5
103
330
5A
100
AcDbEntity
  8
0
 62
    28
100
AcDbVertex
100
AcDbPolyFaceMeshVertex
 10
-0.2021033763885498
 20
0.5833333134651184
 30
0.4114583432674408
 70
   192
  0
VERTEX
  5
104
330
5A
100
AcDbEntity
  8
0
 62
    28
100
AcDbVertex
100
AcDbPolyFaceMeshVertex
 10
-0.1989814788103104
 20
0.5833333134651184
 30
0.4039214253425598
 70
   192
  0
VERTEX
  5
105
330
5A
100
AcDbEntity
  8
0
 62
    28
100
AcDbVertex
100
AcDbPolyFaceMeshVertex
 10
-0.1979166716337204
 20
0.5833333134651184
 30
0.3958333432674408
 70
   192
  0
VERTEX
  5
106
330
5A
100
AcDbEntity
  8
0
 62
    28
100
AcDbVertex
100
AcDbPolyFaceMeshVertex
 10
-0.1989814788103104
 20
0.5833333134651184
 30
0.3877452313899994
 70
   192
  0
VERTEX
  5
107
330
5A
100
AcDbEntity
  8
0
 62
    28
100
AcDbVertex
100
AcDbPolyFaceMeshVertex
 10
-0.2021033763885498
 20
0.5833333134651184
 30
0.3802083432674408
 70
   192
  0
VERTEX
  5
108
330
5A
100
AcDbEntity
  8
0
 62
    28
100
AcDbVertex
100
AcDbPolyFaceMeshVertex
 10
-0.2070695757865906
 20
0.5833333134651184
 30
0.3737362325191498
 70
   192
  0
VERTEX
  5
109
330
5A
100
AcDbEntity
  8
0
 62
    28
100
AcDbVertex
100
AcDbPolyFaceMeshVertex
 10
-0.2135416716337204
 20
0.5833333134651184
 30
0.368770033121109
 70
   192
  0
VERTEX
  5
10A
330
5A
100
AcDbEntity
  8
0
 62
    28
100
AcDbVertex
100
AcDbPolyFaceMeshVertex
 10
-0.2210785746574402
 20
0.5833333134651184
 30
0.3656481504440308
 70
   192
  0
VERTEX
  5
10B
330
5A
100
AcDbEntity
  8
0
 62
    28
100
AcDbVertex
100
AcDbPolyFaceMeshVertex
 10
-0.2291666716337204
 20
0.5833333134651184
 30
0.3645833432674408
 70
   192
  0
VERTEX
  5
10C
330
5A
100
AcDbEntity
  8
0
 62
    28
100
AcDbVertex
100
AcDbPolyFaceMeshVertex
 10
-0.2372547686100006
 20
0.5833333134651184
 30
0.3656481504440308
 70
   192
  0
VERTEX
  5
10D
330
5A
100
AcDbEntity
  8
0
 62
    28
100
AcDbVertex
100
AcDbPolyFaceMeshVertex
 10
-0.2447916716337204
 20
0.5833333134651184
 30
0.368770033121109
 70
   192
  0
VERTEX
  5
10E
330
5A
100
AcDbEntity
  8
0
 62
    28
100
AcDbVertex
100
AcDbPolyFaceMeshVertex
 10
-0.2512637674808502
 20
0.5833333134651184
 30
0.3737362325191498
 70
   192
  0
VERTEX
  5
10F
330
5A
100
AcDbEntity
  8
0
 62
    28
100
AcDbVertex
100
AcDbPolyFaceMeshVertex
 10
-0.256229966878891
 20
0.5833333134651184
 30
0.3802083432674408
 70
   192
  0
VERTEX
  5
110
330
5A
100
AcDbEntity
  8
0
 62
    28
100
AcDbVertex
100
AcDbPolyFaceMeshVertex
 10
-0.2593518495559692
 20
0.5833333134651184
 30
0.3877452313899994
 70
   192
  0
VERTEX
  5
111
330
5A
100
AcDbEntity
  8
0
 62
    28
100
AcDbVertex
100
AcDbPolyFaceMeshVertex
 10
-0.2291666716337204
 20
0.5
 30
0.3645833432674408
 70
   192
  0
VERTEX
  5
112
330
5A
100
AcDbEntity
  8
0
 62
    28
100
AcDbVertex
100
AcDbPolyFaceMeshVertex
 10
-0.2372547686100006
 20
0.5
 30
0.3656481504440308
 70
   192
  0
VERTEX
  5
113
330
5A
100
AcDbEntity
  8
0
 62
    28
100
AcDbVertex
100
AcDbPolyFaceMeshVertex
 10
-0.2447916716337204
 20
0.5
 30
0.368770033121109
 70
   192
  0
VERTEX
  5
114
330
5A
100
AcDbEntity
  8
0
 62
    28
100
AcDbVertex
100
AcDbPolyFaceMeshVertex
 10
-0.2512637674808502
 20
0.5
 30
0.3737362325191498
 70
   192
  0
VERTEX
  5
115
330
5A
100
AcDbEntity
  8
0
 62
    28
100
AcDbVertex
100
AcDbPolyFaceMeshVertex
 10
-0.256229966878891
 20
0.5
 30
0.3802083432674408
 70
   192
  0
VERTEX
  5
116
330
5A
100
AcDbEntity
  8
0
 62
    28
100
AcDbVertex
100
AcDbPolyFaceMeshVertex
 10
-0.2593518495559692
 20
0.5
 30
0.3877452313899994
 70
   192
  0
VERTEX
  5
117
330
5A
100
AcDbEntity
  8
0
 62
    28
100
AcDbVertex
100
AcDbPolyFaceMeshVertex
 10
-0.2604166567325592
 20
0.5
 30
0.3958333432674408
 70
   192
  0
VERTEX
  5
118
330
5A
100
AcDbEntity
  8
0
 62
    28
100
AcDbVertex
100
AcDbPolyFaceMeshVertex
 10
-0.2593518495559692
 20
0.5
 30
0.4039214253425598
 70
   192
  0
VERTEX
  5
119
330
5A
100
AcDbEntity
  8
0
 62
    28
100
AcDbVertex
100
AcDbPolyFaceMeshVertex
 10
-0.256229966878891
 20
0.5
 30
0.4114583432674408
 70
   192
  0
VERTEX
  5
11A
330
5A
100
AcDbEntity
  8
0
 62
    28
100
AcDbVertex
100
AcDbPolyFaceMeshVertex
 10
-0.2512637674808502
 20
0.5
 30
0.4179304242134094
 70
   192
  0
VERTEX
  5
11B
330
5A
100
AcDbEntity
  8
0
 62
    28
100
AcDbVertex
100
AcDbPolyFaceMeshVertex
 10
-0.2447916716337204
 20
0.5
 30
0.4228966236114502
 70
   192
  0
VERTEX
  5
11C
330
5A
100
AcDbEntity
  8
0
 62
    28
100
AcDbVertex
100
AcDbPolyFaceMeshVertex
 10
-0.2372547686100006
 20
0.5
 30
0.4260185062885284
 70
   192
  0
VERTEX
  5
11D
330
5A
100
AcDbEntity
  8
0
 62
    28
100
AcDbVertex
100
AcDbPolyFaceMeshVertex
 10
-0.2291666716337204
 20
0.5
 30
0.4270833432674408
 70
   192
  0
VERTEX
  5
11E
330
5A
100
AcDbEntity
  8
0
 62
    28
100
AcDbVertex
100
AcDbPolyFaceMeshVertex
 10
-0.2291666716337204
 20
0.5833333134651184
 30
0.4270833432674408
 70
   192
  0
VERTEX
  5
11F
330
5A
100
AcDbEntity
  8
0
 62
    28
100
AcDbVertex
100
AcDbPolyFaceMeshVertex
 10
-0.2372547686100006
 20
0.5833333134651184
 30
0.4260185062885284
 70
   192
  0
VERTEX
  5
120
330
5A
100
AcDbEntity
  8
0
 62
    28
100
AcDbVertex
100
AcDbPolyFaceMeshVertex
 10
-0.2447916716337204
 20
0.5833333134651184
 30
0.4228966236114502
 70
   192
  0
VERTEX
  5
121
330
5A
100
AcDbEntity
  8
0
 62
    28
100
AcDbVertex
100
AcDbPolyFaceMeshVertex
 10
-0.2512637674808502
 20
0.5833333134651184
 30
0.4179304242134094
 70
   192
  0
VERTEX
  5
122
330
5A
100
AcDbEntity
  8
0
 62
    28
100
AcDbVertex
100
AcDbPolyFaceMeshVertex
 10
-0.256229966878891
 20
0.5833333134651184
 30
0.4114583432674408
 70
   192
  0
VERTEX
  5
123
330
5A
100
AcDbEntity
  8
0
 62
    28
100
AcDbVertex
100
AcDbPolyFaceMeshVertex
 10
-0.2593518495559692
 20
0.5833333134651184
 30
0.4039214253425598
 70
   192
  0
VERTEX
  5
124
330
5A
100
AcDbEntity
  8
0
 62
    28
100
AcDbVertex
100
AcDbPolyFaceMeshVertex
 10
-0.2604166567325592
 20
0.5833333134651184
 30
0.3958333432674408
 70
   192
  0
VERTEX
  5
125
330
5A
100
AcDbEntity
  8
0
 62
    28
100
AcDbVertex
100
AcDbPolyFaceMeshVertex
 10
-0.2593518495559692
 20
0.5833333134651184
 30
0.3877452313899994
 70
   192
  0
VERTEX
  5
126
330
5A
100
AcDbEntity
  8
0
 62
    28
100
AcDbVertex
100
AcDbPolyFaceMeshVertex
 10
-0.256229966878891
 20
0.5833333134651184
 30
0.3802083432674408
 70
   192
  0
VERTEX
  5
127
330
5A
100
AcDbEntity
  8
0
 62
    28
100
AcDbVertex
100
AcDbPolyFaceMeshVertex
 10
-0.2512637674808502
 20
0.5833333134651184
 30
0.3737362325191498
 70
   192
  0
VERTEX
  5
128
330
5A
100
AcDbEntity
  8
0
 62
    28
100
AcDbVertex
100
AcDbPolyFaceMeshVertex
 10
-0.2447916716337204
 20
0.5833333134651184
 30
0.368770033121109
 70
   192
  0
VERTEX
  5
129
330
5A
100
AcDbEntity
  8
0
 62
    28
100
AcDbVertex
100
AcDbPolyFaceMeshVertex
 10
-0.2372547686100006
 20
0.5833333134651184
 30
0.3656481504440308
 70
   192
  0
VERTEX
  5
12A
330
5A
100
AcDbEntity
  8
0
 62
    28
100
AcDbVertex
100
AcDbPolyFaceMeshVertex
 10
-0.2291666716337204
 20
0.5833333134651184
 30
0.3645833432674408
 70
   192
  0
VERTEX
  5
12B
330
5A
100
AcDbEntity
  8
0
 62
    28
100
AcDbVertex
100
AcDbPolyFaceMeshVertex
 10
-0.2291666716337204
 20
0.5
 30
0.4270833432674408
 70
   192
  0
VERTEX
  5
12C
330
5A
100
AcDbEntity
  8
0
 62
    28
100
AcDbVertex
100
AcDbPolyFaceMeshVertex
 10
-0.2210785746574402
 20
0.5
 30
0.4260185062885284
 70
   192
  0
VERTEX
  5
12D
330
5A
100
AcDbEntity
  8
0
 62
    28
100
AcDbVertex
100
AcDbPolyFaceMeshVertex
 10
-0.2135416716337204
 20
0.5
 30
0.4228966236114502
 70
   192
  0
VERTEX
  5
12E
330
5A
100
AcDbEntity
  8
0
 62
    28
100
AcDbVertex
100
AcDbPolyFaceMeshVertex
 10
-0.2070695757865906
 20
0.5
 30
0.4179304242134094
 70
   192
  0
VERTEX
  5
12F
330
5A
100
AcDbEntity
  8
0
 62
    28
100
AcDbVertex
100
AcDbPolyFaceMeshVertex
 10
-0.2021033763885498
 20
0.5
 30
0.4114583432674408
 70
   192
  0
VERTEX
  5
130
330
5A
100
AcDbEntity
  8
0
 62
    28
100
AcDbVertex
100
AcDbPolyFaceMeshVertex
 10
-0.1989814788103104
 20
0.5
 30
0.4039214253425598
 70
   192
  0
VERTEX
  5
131
330
5A
100
AcDbEntity
  8
0
 62
    28
100
AcDbVertex
100
AcDbPolyFaceMeshVertex
 10
-0.1979166716337204
 20
0.5
 30
0.3958333432674408
 70
   192
  0
VERTEX
  5
132
330
5A
100
AcDbEntity
  8
0
 62
    28
100
AcDbVertex
100
AcDbPolyFaceMeshVertex
 10
-0.1989814788103104
 20
0.5
 30
0.3877452313899994
 70
   192
  0
VERTEX
  5
133
330
5A
100
AcDbEntity
  8
0
 62
    28
100
AcDbVertex
100
AcDbPolyFaceMeshVertex
 10
-0.2021033763885498
 20
0.5
 30
0.3802083432674408
 70
   192
  0
VERTEX
  5
134
330
5A
100
AcDbEntity
  8
0
 62
    28
100
AcDbVertex
100
AcDbPolyFaceMeshVertex
 10
-0.2070695757865906
 20
0.5
 30
0.3737362325191498
 70
   192
  0
VERTEX
  5
135
330
5A
100
AcDbEntity
  8
0
 62
    28
100
AcDbVertex
100
AcDbPolyFaceMeshVertex
 10
-0.2135416716337204
 20
0.5
 30
0.368770033121109
 70
   192
  0
VERTEX
  5
136
330
5A
100
AcDbEntity
  8
0
 62
    28
100
AcDbVertex
100
AcDbPolyFaceMeshVertex
 10
-0.2210785746574402
 20
0.5
 30
0.3656481504440308
 70
   192
  0
VERTEX
  5
137
330
5A
100
AcDbEntity
  8
0
 62
    28
100
AcDbVertex
100
AcDbPolyFaceMeshVertex
 10
-0.2291666716337204
 20
0.5
 30
0.3645833432674408
 70
   192
  0
VERTEX
  5
138
330
5A
100
AcDbEntity
  8
0
 62
    28
100
AcDbVertex
100
AcDbPolyFaceMeshVertex
 10
-0.2210785746574402
 20
0.5833333134651184
 30
0.3656481504440308
 70
   192
  0
VERTEX
  5
139
330
5A
100
AcDbEntity
  8
0
 62
    28
100
AcDbVertex
100
AcDbPolyFaceMeshVertex
 10
-0.2135416716337204
 20
0.5833333134651184
 30
0.368770033121109
 70
   192
  0
VERTEX
  5
13A
330
5A
100
AcDbEntity
  8
0
 62
    28
100
AcDbVertex
100
AcDbPolyFaceMeshVertex
 10
-0.2070695757865906
 20
0.5833333134651184
 30
0.3737362325191498
 70
   192
  0
VERTEX
  5
13B
330
5A
100
AcDbEntity
  8
0
 62
    28
100
AcDbVertex
100
AcDbPolyFaceMeshVertex
 10
-0.2021033763885498
 20
0.5833333134651184
 30
0.3802083432674408
 70
   192
  0
VERTEX
  5
13C
330
5A
100
AcDbEntity
  8
0
 62
    28
100
AcDbVertex
100
AcDbPolyFaceMeshVertex
 10
-0.1989814788103104
 20
0.5833333134651184
 30
0.3877452313899994
 70
   192
  0
VERTEX
  5
13D
330
5A
100
AcDbEntity
  8
0
 62
    28
100
AcDbVertex
100
AcDbPolyFaceMeshVertex
 10
-0.1979166716337204
 20
0.5833333134651184
 30
0.3958333432674408
 70
   192
  0
VERTEX
  5
13E
330
5A
100
AcDbEntity
  8
0
 62
    28
100
AcDbVertex
100
AcDbPolyFaceMeshVertex
 10
-0.1989814788103104
 20
0.5833333134651184
 30
0.4039214253425598
 70
   192
  0
VERTEX
  5
13F
330
5A
100
AcDbEntity
  8
0
 62
    28
100
AcDbVertex
100
AcDbPolyFaceMeshVertex
 10
-0.2021033763885498
 20
0.5833333134651184
 30
0.4114583432674408
 70
   192
  0
VERTEX
  5
140
330
5A
100
AcDbEntity
  8
0
 62
    28
100
AcDbVertex
100
AcDbPolyFaceMeshVertex
 10
-0.2070695757865906
 20
0.5833333134651184
 30
0.4179304242134094
 70
   192
  0
VERTEX
  5
141
330
5A
100
AcDbEntity
  8
0
 62
    28
100
AcDbVertex
100
AcDbPolyFaceMeshVertex
 10
-0.2135416716337204
 20
0.5833333134651184
 30
0.4228966236114502
 70
   192
  0
VERTEX
  5
142
330
5A
100
AcDbEntity
  8
0
 62
    28
100
AcDbVertex
100
AcDbPolyFaceMeshVertex
 10
-0.2210785746574402
 20
0.5833333134651184
 30
0.4260185062885284
 70
   192
  0
VERTEX
  5
143
330
5A
100
AcDbEntity
  8
0
 62
    28
100
AcDbVertex
100
AcDbPolyFaceMeshVertex
 10
-0.2291666716337204
 20
0.5833333134651184
 30
0.4270833432674408
 70
   192
  0
VERTEX
  5
144
330
5A
100
AcDbEntity
  8
0
 62
    28
100
AcDbFaceRecord
 10
0.0
 20
0.0
 30
0.0
 70
   128
 71
     1
 72
     2
 73
     3
  0
VERTEX
  5
145
330
5A
100
AcDbEntity
  8
0
 62
    28
100
AcDbFaceRecord
 10
0.0
 20
0.0
 30
0.0
 70
   128
 71
     1
 72
     3
 73
     6
  0
VERTEX
  5
146
330
5A
100
AcDbEntity
  8
0
 62
    28
100
AcDbFaceRecord
 10
0.0
 20
0.0
 30
0.0
 70
   128
 71
     6
 72
     3
 73
     4
  0
VERTEX
  5
147
330
5A
100
AcDbEntity
  8
0
 62
    28
100
AcDbFaceRecord
 10
0.0
 20
0.0
 30
0.0
 70
   128
 71
     6
 72
     4
 73
     5
  0
VERTEX
  5
148
330
5A
100
AcDbEntity
  8
0
 62
    28
100
AcDbFaceRecord
 10
0.0
 20
0.0
 30
0.0
 70
   128
 71
     7
 72
     8
 73
     9
  0
VERTEX
  5
149
330
5A
100
AcDbEntity
  8
0
 62
    28
100
AcDbFaceRecord
 10
0.0
 20
0.0
 30
0.0
 70
   128
 71
     7
 72
     9
 73
    10
  0
VERTEX
  5
14A
330
5A
100
AcDbEntity
  8
0
 62
    28
100
AcDbFaceRecord
 10
0.0
 20
0.0
 30
0.0
 70
   128
 71
     7
 72
    10
 73
    12
  0
VERTEX
  5
14B
330
5A
100
AcDbEntity
  8
0
 62
    28
100
AcDbFaceRecord
 10
0.0
 20
0.0
 30
0.0
 70
   128
 71
    12
 72
    10
 73
    11
  0
VERTEX
  5
14C
330
5A
100
AcDbEntity
  8
0
 62
    28
100
AcDbFaceRecord
 10
0.0
 20
0.0
 30
0.0
 70
   128
 71
    13
 72
    14
 73
    37
  0
VERTEX
  5
14D
330
5A
100
AcDbEntity
  8
0
 62
    28
100
AcDbFaceRecord
 10
0.0
 20
0.0
 30
0.0
 70
   128
 71
    37
 72
    14
 73
    38
  0
VERTEX
  5
14E
330
5A
100
AcDbEntity
  8
0
 62
    28
100
AcDbFaceRecord
 10
0.0
 20
0.0
 30
0.0
 70
   128
 71
    38
 72
    14
 73
    15
  0
VERTEX
  5
14F
330
5A
100
AcDbEntity
  8
0
 62
    28
100
AcDbFaceRecord
 10
0.0
 20
0.0
 30
0.0
 70
   128
 71
    38
 72
    15
 73
    16
  0
VERTEX
  5
150
330
5A
100
AcDbEntity
  8
0
 62
    28
100
AcDbFaceRecord
 10
0.0
 20
0.0
 30
0.0
 70
   128
 71
    38
 72
    16
 73
    39
  0
VERTEX
  5
151
330
5A
100
AcDbEntity
  8
0
 62
    28
100
AcDbFaceRecord
 10
0.0
 20
0.0
 30
0.0
 70
   128
 71
    39
 72
    16
 73
    17
  0
VERTEX
  5
152
330
5A
100
AcDbEntity
  8
0
 62
    28
100
AcDbFaceRecord
 10
0.0
 20
0.0
 30
0.0
 70
   128
 71
    39
 72
    17
 73
    40
  0
VERTEX
  5
153
330
5A
100
AcDbEntity
  8
0
 62
    28
100
AcDbFaceRecord
 10
0.0
 20
0.0
 30
0.0
 70
   128
 71
    40
 72
    17
 73
    41
  0
VERTEX
  5
154
330
5A
100
AcDbEntity
  8
0
 62
    28
100
AcDbFaceRecord
 10
0.0
 20
0.0
 30
0.0
 70
   128
 71
    41
 72
    17
 73
    18
  0
VERTEX
  5
155
330
5A
100
AcDbEntity
  8
0
 62
    28
100
AcDbFaceRecord
 10
0.0
 20
0.0
 30
0.0
 70
   128
 71
    41
 72
    18
 73
    42
  0
VERTEX
  5
156
330
5A
100
AcDbEntity
  8
0
 62
    28
100
AcDbFaceRecord
 10
0.0
 20
0.0
 30
0.0
 70
   128
 71
    42
 72
    18
 73
    19
  0
VERTEX
  5
157
330
5A
100
AcDbEntity
  8
0
 62
    28
100
AcDbFaceRecord
 10
0.0
 20
0.0
 30
0.0
 70
   128
 71
    42
 72
    19
 73
    43
  0
VERTEX
  5
158
330
5A
100
AcDbEntity
  8
0
 62
    28
100
AcDbFaceRecord
 10
0.0
 20
0.0
 30
0.0
 70
   128
 71
    43
 72
    19
 73
    20
  0
VERTEX
  5
159
330
5A
100
AcDbEntity
  8
0
 62
    28
100
AcDbFaceRecord
 10
0.0
 20
0.0
 30
0.0
 70
   128
 71
    43
 72
    20
 73
    44
  0
VERTEX
  5
15A
330
5A
100
AcDbEntity
  8
0
 62
    28
100
AcDbFaceRecord
 10
0.0
 20
0.0
 30
0.0
 70
   128
 71
    44
 72
    20
 73
    21
  0
VERTEX
  5
15B
330
5A
100
AcDbEntity
  8
0
 62
    28
100
AcDbFaceRecord
 10
0.0
 20
0.0
 30
0.0
 70
   128
 71
    44
 72
    21
 73
    45
  0
VERTEX
  5
15C
330
5A
100
AcDbEntity
  8
0
 62
    28
100
AcDbFaceRecord
 10
0.0
 20
0.0
 30
0.0
 70
   128
 71
    45
 72
    21
 73
    46
  0
VERTEX
  5
15D
330
5A
100
AcDbEntity
  8
0
 62
    28
100
AcDbFaceRecord
 10
0.0
 20
0.0
 30
0.0
 70
   128
 71
    46
 72
    21
 73
    22
  0
VERTEX
  5
15E
330
5A
100
AcDbEntity
  8
0
 62
    28
100
AcDbFaceRecord
 10
0.0
 20
0.0
 30
0.0
 70
   128
 71
    46
 72
    22
 73
    23
  0
VERTEX
  5
15F
330
5A
100
AcDbEntity
  8
0
 62
    28
100
AcDbFaceRecord
 10
0.0
 20
0.0
 30
0.0
 70
   128
 71
    46
 72
    23
 73
    24
  0
VERTEX
  5
160
330
5A
100
AcDbEntity
  8
0
 62
    28
100
AcDbFaceRecord
 10
0.0
 20
0.0
 30
0.0
 70
   128
 71
    46
 72
    24
 73
    25
  0
VERTEX
  5
161
330
5A
100
AcDbEntity
  8
0
 62
    28
100
AcDbFaceRecord
 10
0.0
 20
0.0
 30
0.0
 70
   128
 71
    46
 72
    25
 73
    26
  0
VERTEX
  5
162
330
5A
100
AcDbEntity
  8
0
 62
    28
100
AcDbFaceRecord
 10
0.0
 20
0.0
 30
0.0
 70
   128
 71
    46
 72
    26
 73
    27
  0
VERTEX
  5
163
330
5A
100
AcDbEntity
  8
0
 62
    28
100
AcDbFaceRecord
 10
0.0
 20
0.0
 30
0.0
 70
   128
 71
    46
 72
    27
 73
    28
  0
VERTEX
  5
164
330
5A
100
AcDbEntity
  8
0
 62
    28
100
AcDbFaceRecord
 10
0.0
 20
0.0
 30
0.0
 70
   128
 71
    46
 72
    28
 73
    29
  0
VERTEX
  5
165
330
5A
100
AcDbEntity
  8
0
 62
    28
100
AcDbFaceRecord
 10
0.0
 20
0.0
 30
0.0
 70
   128
 71
    46
 72
    29
 73
    30
  0
VERTEX
  5
166
330
5A
100
AcDbEntity
  8
0
 62
    28
100
AcDbFaceRecord
 10
0.0
 20
0.0
 30
0.0
 70
   128
 71
    46
 72
    30
 73
    47
  0
VERTEX
  5
167
330
5A
100
AcDbEntity
  8
0
 62
    28
100
AcDbFaceRecord
 10
0.0
 20
0.0
 30
0.0
 70
   128
 71
    47
 72
    30
 73
    31
  0
VERTEX
  5
168
330
5A
100
AcDbEntity
  8
0
 62
    28
100
AcDbFaceRecord
 10
0.0
 20
0.0
 30
0.0
 70
   128
 71
    47
 72
    31
 73
    32
  0
VERTEX
  5
169
330
5A
100
AcDbEntity
  8
0
 62
    28
100
AcDbFaceRecord
 10
0.0
 20
0.0
 30
0.0
 70
   128
 71
    47
 72
    32
 73
    33
  0
VERTEX
  5
16A
330
5A
100
AcDbEntity
  8
0
 62
    28
100
AcDbFaceRecord
 10
0.0
 20
0.0
 30
0.0
 70
   128
 71
    47
 72
    33
 73
    34
  0
VERTEX
  5
16B
330
5A
100
AcDbEntity
  8
0
 62
    28
100
AcDbFaceRecord
 10
0.0
 20
0.0
 30
0.0
 70
   128
 71
    47
 72
    34
 73
    35
  0
VERTEX
  5
16C
330
5A
100
AcDbEntity
  8
0
 62
    28
100
AcDbFaceRecord
 10
0.0
 20
0.0
 30
0.0
 70
   128
 71
    47
 72
    35
 73
    36
  0
VERTEX
  5
16D
330
5A
100
AcDbEntity
  8
0
 62
    28
100
AcDbFaceRecord
 10
0.0
 20
0.0
 30
0.0
 70
   128
 71
    47
 72
    36
 73
    13
  0
VERTEX
  5
16E
330
5A
100
AcDbEntity
  8
0
 62
    28
100
AcDbFaceRecord
 10
0.0
 20
0.0
 30
0.0
 70
   128
 71
    47
 72
    13
 73
    48
  0
VERTEX
  5
16F
330
5A
100
AcDbEntity
  8
0
 62
    28
100
AcDbFaceRecord
 10
0.0
 20
0.0
 30
0.0
 70
   128
 71
    48
 72
    13
 73
    37
  0
VERTEX
  5
170
330
5A
100
AcDbEntity
  8
0
 62
    28
100
AcDbFaceRecord
 10
0.0
 20
0.0
 30
0.0
 70
   128
 71
    49
 72
    44
 73
    45
  0
VERTEX
  5
171
330
5A
100
AcDbEntity
  8
0
 62
    28
100
AcDbFaceRecord
 10
0.0
 20
0.0
 30
0.0
 70
   128
 71
    49
 72
    45
 73
    50
  0
VERTEX
  5
172
330
5A
100
AcDbEntity
  8
0
 62
    28
100
AcDbFaceRecord
 10
0.0
 20
0.0
 30
0.0
 70
   128
 71
    50
 72
    45
 73
    51
  0
VERTEX
  5
173
330
5A
100
AcDbEntity
  8
0
 62
    28
100
AcDbFaceRecord
 10
0.0
 20
0.0
 30
0.0
 70
   128
 71
    51
 72
    45
 73
    52
  0
VERTEX
  5
174
330
5A
100
AcDbEntity
  8
0
 62
    28
100
AcDbFaceRecord
 10
0.0
 20
0.0
 30
0.0
 70
   128
 71
    52
 72
    45
 73
    53
  0
VERTEX
  5
175
330
5A
100
AcDbEntity
  8
0
 62
    28
100
AcDbFaceRecord
 10
0.0
 20
0.0
 30
0.0
 70
   128
 71
    53
 72
    45
 73
    54
  0
VERTEX
  5
176
330
5A
100
AcDbEntity
  8
0
 62
    28
100
AcDbFaceRecord
 10
0.0
 20
0.0
 30
0.0
 70
   128
 71
    54
 72
    45
 73
    55
  0
VERTEX
  5
177
330
5A
100
AcDbEntity
  8
0
 62
    28
100
AcDbFaceRecord
 10
0.0
 20
0.0
 30
0.0
 70
   128
 71
    55
 72
    45
 73
    56
  0
VERTEX
  5
178
330
5A
100
AcDbEntity
  8
0
 62
    28
100
AcDbFaceRecord
 10
0.0
 20
0.0
 30
0.0
 70
   128
 71
    56
 72
    45
 73
    57
  0
VERTEX
  5
179
330
5A
100
AcDbEntity
  8
0
 62
    28
100
AcDbFaceRecord
 10
0.0
 20
0.0
 30
0.0
 70
   128
 71
    57
 72
    45
 73
    58
  0
VERTEX
  5
17A
330
5A
100
AcDbEntity
  8
0
 62
    28
100
AcDbFaceRecord
 10
0.0
 20
0.0
 30
0.0
 70
   128
 71
    58
 72
    47
 73
    48
  0
VERTEX
  5
17B
330
5A
100
AcDbEntity
  8
0
 62
    28
100
AcDbFaceRecord
 10
0.0
 20
0.0
 30
0.0
 70
   128
 71
    58
 72
    48
 73
    59
  0
VERTEX
  5
17C
330
5A
100
AcDbEntity
  8
0
 62
    28
100
AcDbFaceRecord
 10
0.0
 20
0.0
 30
0.0
 70
   128
 71
    64
 72
    57
 73
    58
  0
VERTEX
  5
17D
330
5A
100
AcDbEntity
  8
0
 62
    28
100
AcDbFaceRecord
 10
0.0
 20
0.0
 30
0.0
 70
   128
 71
    64
 72
    58
 73
    63
  0
VERTEX
  5
17E
330
5A
100
AcDbEntity
  8
0
 62
    28
100
AcDbFaceRecord
 10
0.0
 20
0.0
 30
0.0
 70
   128
 71
    63
 72
    58
 73
    62
  0
VERTEX
  5
17F
330
5A
100
AcDbEntity
  8
0
 62
    28
100
AcDbFaceRecord
 10
0.0
 20
0.0
 30
0.0
 70
   128
 71
    62
 72
    58
 73
    61
  0
VERTEX
  5
180
330
5A
100
AcDbEntity
  8
0
 62
    28
100
AcDbFaceRecord
 10
0.0
 20
0.0
 30
0.0
 70
   128
 71
    61
 72
    58
 73
    60
  0
VERTEX
  5
181
330
5A
100
AcDbEntity
  8
0
 62
    28
100
AcDbFaceRecord
 10
0.0
 20
0.0
 30
0.0
 70
   128
 71
    60
 72
    58
 73
    59
  0
VERTEX
  5
182
330
5A
100
AcDbEntity
  8
0
 62
    28
100
AcDbFaceRecord
 10
0.0
 20
0.0
 30
0.0
 70
   128
 71
    65
 72
    66
 73
    67
  0
VERTEX
  5
183
330
5A
100
AcDbEntity
  8
0
 62
    28
100
AcDbFaceRecord
 10
0.0
 20
0.0
 30
0.0
 70
   128
 71
    65
 72
    67
 73
    68
  0
VERTEX
  5
184
330
5A
100
AcDbEntity
  8
0
 62
    28
100
AcDbFaceRecord
 10
0.0
 20
0.0
 30
0.0
 70
   128
 71
    69
 72
    70
 73
    72
  0
VERTEX
  5
185
330
5A
100
AcDbEntity
  8
0
 62
    28
100
AcDbFaceRecord
 10
0.0
 20
0.0
 30
0.0
 70
   128
 71
    72
 72
    70
 73
    71
  0
VERTEX
  5
186
330
5A
100
AcDbEntity
  8
0
 62
    28
100
AcDbFaceRecord
 10
0.0
 20
0.0
 30
0.0
 70
   128
 71
    73
 72
    74
 73
    76
  0
VERTEX
  5
187
330
5A
100
AcDbEntity
  8
0
 62
    28
100
AcDbFaceRecord
 10
0.0
 20
0.0
 30
0.0
 70
   128
 71
    76
 72
    74
 73
    75
  0
VERTEX
  5
188
330
5A
100
AcDbEntity
  8
0
 62
    28
100
AcDbFaceRecord
 10
0.0
 20
0.0
 30
0.0
 70
   128
 71
    77
 72
    78
 73
    79
  0
VERTEX
  5
189
330
5A
100
AcDbEntity
  8
0
 62
    28
100
AcDbFaceRecord
 10
0.0
 20
0.0
 30
0.0
 70
   128
 71
    77
 72
    79
 73
    80
  0
VERTEX
  5
18A
330
5A
100
AcDbEntity
  8
0
 62
    28
100
AcDbFaceRecord
 10
0.0
 20
0.0
 30
0.0
 70
   128
 71
    81
 72
    82
 73
    83
  0
VERTEX
  5
18B
330
5A
100
AcDbEntity
  8
0
 62
    28
100
AcDbFaceRecord
 10
0.0
 20
0.0
 30
0.0
 70
   128
 71
    81
 72
    83
 73
    84
  0
VERTEX
  5
18C
330
5A
100
AcDbEntity
  8
0
 62
    28
100
AcDbFaceRecord
 10
0.0
 20
0.0
 30
0.0
 70
   128
 71
    85
 72
    86
 73
    87
  0
VERTEX
  5
18D
330
5A
100
AcDbEntity
  8
0
 62
    28
100
AcDbFaceRecord
 10
0.0
 20
0.0
 30
0.0
 70
   128
 71
    85
 72
    87
 73
   108
  0
VERTEX
  5
18E
330
5A
100
AcDbEntity
  8
0
 62
    28
100
AcDbFaceRecord
 10
0.0
 20
0.0
 30
0.0
 70
   128
 71
   108
 72
    87
 73
    97
  0
VERTEX
  5
18F
330
5A
100
AcDbEntity
  8
0
 62
    28
100
AcDbFaceRecord
 10
0.0
 20
0.0
 30
0.0
 70
   128
 71
    97
 72
    87
 73
    90
  0
VERTEX
  5
190
330
5A
100
AcDbEntity
  8
0
 62
    28
100
AcDbFaceRecord
 10
0.0
 20
0.0
 30
0.0
 70
   128
 71
    90
 72
    87
 73
    89
  0
VERTEX
  5
191
330
5A
100
AcDbEntity
  8
0
 62
    28
100
AcDbFaceRecord
 10
0.0
 20
0.0
 30
0.0
 70
   128
 71
    89
 72
    87
 73
    88
  0
VERTEX
  5
192
330
5A
100
AcDbEntity
  8
0
 62
    28
100
AcDbFaceRecord
 10
0.0
 20
0.0
 30
0.0
 70
   128
 71
    97
 72
    90
 73
    92
  0
VERTEX
  5
193
330
5A
100
AcDbEntity
  8
0
 62
    28
100
AcDbFaceRecord
 10
0.0
 20
0.0
 30
0.0
 70
   128
 71
    92
 72
    90
 73
    91
  0
VERTEX
  5
194
330
5A
100
AcDbEntity
  8
0
 62
    28
100
AcDbFaceRecord
 10
0.0
 20
0.0
 30
0.0
 70
   128
 71
    97
 72
    92
 73
    95
  0
VERTEX
  5
195
330
5A
100
AcDbEntity
  8
0
 62
    28
100
AcDbFaceRecord
 10
0.0
 20
0.0
 30
0.0
 70
   128
 71
    95
 72
    92
 73
    94
  0
VERTEX
  5
196
330
5A
100
AcDbEntity
  8
0
 62
    28
100
AcDbFaceRecord
 10
0.0
 20
0.0
 30
0.0
 70
   128
 71
    94
 72
    92
 73
    93
  0
VERTEX
  5
197
330
5A
100
AcDbEntity
  8
0
 62
    28
100
AcDbFaceRecord
 10
0.0
 20
0.0
 30
0.0
 70
   128
 71
    97
 72
    95
 73
    96
  0
VERTEX
  5
198
330
5A
100
AcDbEntity
  8
0
 62
    28
100
AcDbFaceRecord
 10
0.0
 20
0.0
 30
0.0
 70
   128
 71
   108
 72
    97
 73
   106
  0
VERTEX
  5
199
330
5A
100
AcDbEntity
  8
0
 62
    28
100
AcDbFaceRecord
 10
0.0
 20
0.0
 30
0.0
 70
   128
 71
   106
 72
    97
 73
   100
  0
VERTEX
  5
19A
330
5A
100
AcDbEntity
  8
0
 62
    28
100
AcDbFaceRecord
 10
0.0
 20
0.0
 30
0.0
 70
   128
 71
   100
 72
    97
 73
    98
  0
VERTEX
  5
19B
330
5A
100
AcDbEntity
  8
0
 62
    28
100
AcDbFaceRecord
 10
0.0
 20
0.0
 30
0.0
 70
   128
 71
   100
 72
    98
 73
    99
  0
VERTEX
  5
19C
330
5A
100
AcDbEntity
  8
0
 62
    28
100
AcDbFaceRecord
 10
0.0
 20
0.0
 30
0.0
 70
   128
 71
   106
 72
   100
 73
   103
  0
VERTEX
  5
19D
330
5A
100
AcDbEntity
  8
0
 62
    28
100
AcDbFaceRecord
 10
0.0
 20
0.0
 30
0.0
 70
   128
 71
   103
 72
   100
 73
   102
  0
VERTEX
  5
19E
330
5A
100
AcDbEntity
  8
0
 62
    28
100
AcDbFaceRecord
 10
0.0
 20
0.0
 30
0.0
 70
   128
 71
   102
 72
   100
 73
   101
  0
VERTEX
  5
19F
330
5A
100
AcDbEntity
  8
0
 62
    28
100
AcDbFaceRecord
 10
0.0
 20
0.0
 30
0.0
 70
   128
 71
   106
 72
   103
 73
   104
  0
VERTEX
  5
1A0
330
5A
100
AcDbEntity
  8
0
 62
    28
100
AcDbFaceRecord
 10
0.0
 20
0.0
 30
0.0
 70
   128
 71
   106
 72
   104
 73
   105
  0
VERTEX
  5
1A1
330
5A
100
AcDbEntity
  8
0
 62
    28
100
AcDbFaceRecord
 10
0.0
 20
0.0
 30
0.0
 70
   128
 71
   108
 72
   106
 73
   107
  0
VERTEX
  5
1A2
330
5A
100
AcDbEntity
  8
0
 62
    28
100
AcDbFaceRecord
 10
0.0
 20
0.0
 30
0.0
 70
   128
 71
   109
 72
   110
 73
   133
  0
VERTEX
  5
1A3
330
5A
100
AcDbEntity
  8
0
 62
    28
100
AcDbFaceRecord
 10
0.0
 20
0.0
 30
0.0
 70
   128
 71
   133
 72
   110
 73
   132
  0
VERTEX
  5
1A4
330
5A
100
AcDbEntity
  8
0
 62
    28
100
AcDbFaceRecord
 10
0.0
 20
0.0
 30
0.0
 70
   128
 71
   132
 72
   110
 73
   111
  0
VERTEX
  5
1A5
330
5A
100
AcDbEntity
  8
0
 62
    28
100
AcDbFaceRecord
 10
0.0
 20
0.0
 30
0.0
 70
   128
 71
   132
 72
   111
 73
   131
  0
VERTEX
  5
1A6
330
5A
100
AcDbEntity
  8
0
 62
    28
100
AcDbFaceRecord
 10
0.0
 20
0.0
 30
0.0
 70
   128
 71
   131
 72
   111
 73
   112
  0
VERTEX
  5
1A7
330
5A
100
AcDbEntity
  8
0
 62
    28
100
AcDbFaceRecord
 10
0.0
 20
0.0
 30
0.0
 70
   128
 71
   131
 72
   112
 73
   130
  0
VERTEX
  5
1A8
330
5A
100
AcDbEntity
  8
0
 62
    28
100
AcDbFaceRecord
 10
0.0
 20
0.0
 30
0.0
 70
   128
 71
   130
 72
   112
 73
   113
  0
VERTEX
  5
1A9
330
5A
100
AcDbEntity
  8
0
 62
    28
100
AcDbFaceRecord
 10
0.0
 20
0.0
 30
0.0
 70
   128
 71
   130
 72
   113
 73
   129
  0
VERTEX
  5
1AA
330
5A
100
AcDbEntity
  8
0
 62
    28
100
AcDbFaceRecord
 10
0.0
 20
0.0
 30
0.0
 70
   128
 71
   129
 72
   113
 73
   114
  0
VERTEX
  5
1AB
330
5A
100
AcDbEntity
  8
0
 62
    28
100
AcDbFaceRecord
 10
0.0
 20
0.0
 30
0.0
 70
   128
 71
   129
 72
   114
 73
   128
  0
VERTEX
  5
1AC
330
5A
100
AcDbEntity
  8
0
 62
    28
100
AcDbFaceRecord
 10
0.0
 20
0.0
 30
0.0
 70
   128
 71
   128
 72
   114
 73
   115
  0
VERTEX
  5
1AD
330
5A
100
AcDbEntity
  8
0
 62
    28
100
AcDbFaceRecord
 10
0.0
 20
0.0
 30
0.0
 70
   128
 71
   128
 72
   115
 73
   127
  0
VERTEX
  5
1AE
330
5A
100
AcDbEntity
  8
0
 62
    28
100
AcDbFaceRecord
 10
0.0
 20
0.0
 30
0.0
 70
   128
 71
   127
 72
   115
 73
   116
  0
VERTEX
  5
1AF
330
5A
100
AcDbEntity
  8
0
 62
    28
100
AcDbFaceRecord
 10
0.0
 20
0.0
 30
0.0
 70
   128
 71
   127
 72
   116
 73
   126
  0
VERTEX
  5
1B0
330
5A
100
AcDbEntity
  8
0
 62
    28
100
AcDbFaceRecord
 10
0.0
 20
0.0
 30
0.0
 70
   128
 71
   126
 72
   116
 73
   117
  0
VERTEX
  5
1B1
330
5A
100
AcDbEntity
  8
0
 62
    28
100
AcDbFaceRecord
 10
0.0
 20
0.0
 30
0.0
 70
   128
 71
   126
 72
   117
 73
   125
  0
VERTEX
  5
1B2
330
5A
100
AcDbEntity
  8
0
 62
    28
100
AcDbFaceRecord
 10
0.0
 20
0.0
 30
0.0
 70
   128
 71
   125
 72
   117
 73
   118
  0
VERTEX
  5
1B3
330
5A
100
AcDbEntity
  8
0
 62
    28
100
AcDbFaceRecord
 10
0.0
 20
0.0
 30
0.0
 70
   128
 71
   125
 72
   118
 73
   124
  0
VERTEX
  5
1B4
330
5A
100
AcDbEntity
  8
0
 62
    28
100
AcDbFaceRecord
 10
0.0
 20
0.0
 30
0.0
 70
   128
 71
   124
 72
   118
 73
   119
  0
VERTEX
  5
1B5
330
5A
100
AcDbEntity
  8
0
 62
    28
100
AcDbFaceRecord
 10
0.0
 20
0.0
 30
0.0
 70
   128
 71
   124
 72
   119
 73
   123
  0
VERTEX
  5
1B6
330
5A
100
AcDbEntity
  8
0
 62
    28
100
AcDbFaceRecord
 10
0.0
 20
0.0
 30
0.0
 70
   128
 71
   123
 72
   119
 73
   120
  0
VERTEX
  5
1B7
330
5A
100
AcDbEntity
  8
0
 62
    28
100
AcDbFaceRecord
 10
0.0
 20
0.0
 30
0.0
 70
   128
 71
   123
 72
   120
 73
   122
  0
VERTEX
  5
1B8
330
5A
100
AcDbEntity
  8
0
 62
    28
100
AcDbFaceRecord
 10
0.0
 20
0.0
 30
0.0
 70
   128
 71
   122
 72
   120
 73
   121
  0
VERTEX
  5
1B9
330
5A
100
AcDbEntity
  8
0
 62
    28
100
AcDbFaceRecord
 10
0.0
 20
0.0
 30
0.0
 70
   128
 71
   109
 72
   133
 73
   134
  0
VERTEX
  5
1BA
330
5A
100
AcDbEntity
  8
0
 62
    28
100
AcDbFaceRecord
 10
0.0
 20
0.0
 30
0.0
 70
   128
 71
   109
 72
   134
 73
   158
  0
VERTEX
  5
1BB
330
5A
100
AcDbEntity
  8
0
 62
    28
100
AcDbFaceRecord
 10
0.0
 20
0.0
 30
0.0
 70
   128
 71
   158
 72
   134
 73
   135
  0
VERTEX
  5
1BC
330
5A
100
AcDbEntity
  8
0
 62
    28
100
AcDbFaceRecord
 10
0.0
 20
0.0
 30
0.0
 70
   128
 71
   158
 72
   135
 73
   157
  0
VERTEX
  5
1BD
330
5A
100
AcDbEntity
  8
0
 62
    28
100
AcDbFaceRecord
 10
0.0
 20
0.0
 30
0.0
 70
   128
 71
   157
 72
   135
 73
   136
  0
VERTEX
  5
1BE
330
5A
100
AcDbEntity
  8
0
 62
    28
100
AcDbFaceRecord
 10
0.0
 20
0.0
 30
0.0
 70
   128
 71
   157
 72
   136
 73
   156
  0
VERTEX
  5
1BF
330
5A
100
AcDbEntity
  8
0
 62
    28
100
AcDbFaceRecord
 10
0.0
 20
0.0
 30
0.0
 70
   128
 71
   156
 72
   136
 73
   137
  0
VERTEX
  5
1C0
330
5A
100
AcDbEntity
  8
0
 62
    28
100
AcDbFaceRecord
 10
0.0
 20
0.0
 30
0.0
 70
   128
 71
   156
 72
   137
 73
   155
  0
VERTEX
  5
1C1
330
5A
100
AcDbEntity
  8
0
 62
    28
100
AcDbFaceRecord
 10
0.0
 20
0.0
 30
0.0
 70
   128
 71
   155
 72
   137
 73
   138
  0
VERTEX
  5
1C2
330
5A
100
AcDbEntity
  8
0
 62
    28
100
AcDbFaceRecord
 10
0.0
 20
0.0
 30
0.0
 70
   128
 71
   155
 72
   138
 73
   154
  0
VERTEX
  5
1C3
330
5A
100
AcDbEntity
  8
0
 62
    28
100
AcDbFaceRecord
 10
0.0
 20
0.0
 30
0.0
 70
   128
 71
   154
 72
   138
 73
   139
  0
VERTEX
  5
1C4
330
5A
100
AcDbEntity
  8
0
 62
    28
100
AcDbFaceRecord
 10
0.0
 20
0.0
 30
0.0
 70
   128
 71
   154
 72
   139
 73
   153
  0
VERTEX
  5
1C5
330
5A
100
AcDbEntity
  8
0
 62
    28
100
AcDbFaceRecord
 10
0.0
 20
0.0
 30
0.0
 70
   128
 71
   153
 72
   139
 73
   140
  0
VERTEX
  5
1C6
330
5A
100
AcDbEntity
  8
0
 62
    28
100
AcDbFaceRecord
 10
0.0
 20
0.0
 30
0.0
 70
   128
 71
   153
 72
   140
 73
   152
  0
VERTEX
  5
1C7
330
5A
100
AcDbEntity
  8
0
 62
    28
100
AcDbFaceRecord
 10
0.0
 20
0.0
 30
0.0
 70
   128
 71
   152
 72
   140
 73
   141
  0
VERTEX
  5
1C8
330
5A
100
AcDbEntity
  8
0
 62
    28
100
AcDbFaceRecord
 10
0.0
 20
0.0
 30
0.0
 70
   128
 71
   152
 72
   141
 73
   151
  0
VERTEX
  5
1C9
330
5A
100
AcDbEntity
  8
0
 62
    28
100
AcDbFaceRecord
 10
0.0
 20
0.0
 30
0.0
 70
   128
 71
   151
 72
   141
 73
   142
  0
VERTEX
  5
1CA
330
5A
100
AcDbEntity
  8
0
 62
    28
100
AcDbFaceRecord
 10
0.0
 20
0.0
 30
0.0
 70
   128
 71
   151
 72
   142
 73
   150
  0
VERTEX
  5
1CB
330
5A
100
AcDbEntity
  8
0
 62
    28
100
AcDbFaceRecord
 10
0.0
 20
0.0
 30
0.0
 70
   128
 71
   150
 72
   142
 73
   143
  0
VERTEX
  5
1CC
330
5A
100
AcDbEntity
  8
0
 62
    28
100
AcDbFaceRecord
 10
0.0
 20
0.0
 30
0.0
 70
   128
 71
   150
 72
   143
 73
   149
  0
VERTEX
  5
1CD
330
5A
100
AcDbEntity
  8
0
 62
    28
100
AcDbFaceRecord
 10
0.0
 20
0.0
 30
0.0
 70
   128
 71
   149
 72
   143
 73
   144
  0
VERTEX
  5
1CE
330
5A
100
AcDbEntity
  8
0
 62
    28
100
AcDbFaceRecord
 10
0.0
 20
0.0
 30
0.0
 70
   128
 71
   149
 72
   144
 73
   148
  0
VERTEX
  5
1CF
330
5A
100
AcDbEntity
  8
0
 62
    28
100
AcDbFaceRecord
 10
0.0
 20
0.0
 30
0.0
 70
   128
 71
   148
 72
   144
 73
   145
  0
VERTEX
  5
1D0
330
5A
100
AcDbEntity
  8
0
 62
    28
100
AcDbFaceRecord
 10
0.0
 20
0.0
 30
0.0
 70
   128
 71
   148
 72
   145
 73
   147
  0
VERTEX
  5
1D1
330
5A
100
AcDbEntity
  8
0
 62
    28
100
AcDbFaceRecord
 10
0.0
 20
0.0
 30
0.0
 70
   128
 71
   147
 72
   145
 73
   146
  0
VERTEX
  5
1D2
330
5A
100
AcDbEntity
  8
0
 62
    28
100
AcDbFaceRecord
 10
0.0
 20
0.0
 30
0.0
 70
   128
 71
   159
 72
   160
 73
   161
  0
VERTEX
  5
1D3
330
5A
100
AcDbEntity
  8
0
 62
    28
100
AcDbFaceRecord
 10
0.0
 20
0.0
 30
0.0
 70
   128
 71
   159
 72
   161
 73
   180
  0
VERTEX
  5
1D4
330
5A
100
AcDbEntity
  8
0
 62
    28
100
AcDbFaceRecord
 10
0.0
 20
0.0
 30
0.0
 70
   128
 71
   180
 72
   161
 73
   164
  0
VERTEX
  5
1D5
330
5A
100
AcDbEntity
  8
0
 62
    28
100
AcDbFaceRecord
 10
0.0
 20
0.0
 30
0.0
 70
   128
 71
   164
 72
   161
 73
   163
  0
VERTEX
  5
1D6
330
5A
100
AcDbEntity
  8
0
 62
    28
100
AcDbFaceRecord
 10
0.0
 20
0.0
 30
0.0
 70
   128
 71
   163
 72
   161
 73
   162
  0
VERTEX
  5
1D7
330
5A
100
AcDbEntity
  8
0
 62
    28
100
AcDbFaceRecord
 10
0.0
 20
0.0
 30
0.0
 70
   128
 71
   180
 72
   164
 73
   166
  0
VERTEX
  5
1D8
330
5A
100
AcDbEntity
  8
0
 62
    28
100
AcDbFaceRecord
 10
0.0
 20
0.0
 30
0.0
 70
   128
 71
   166
 72
   164
 73
   165
  0
VERTEX
  5
1D9
330
5A
100
AcDbEntity
  8
0
 62
    28
100
AcDbFaceRecord
 10
0.0
 20
0.0
 30
0.0
 70
   128
 71
   180
 72
   166
 73
   173
  0
VERTEX
  5
1DA
330
5A
100
AcDbEntity
  8
0
 62
    28
100
AcDbFaceRecord
 10
0.0
 20
0.0
 30
0.0
 70
   128
 71
   173
 72
   166
 73
   170
  0
VERTEX
  5
1DB
330
5A
100
AcDbEntity
  8
0
 62
    28
100
AcDbFaceRecord
 10
0.0
 20
0.0
 30
0.0
 70
   128
 71
   170
 72
   166
 73
   169
  0
VERTEX
  5
1DC
330
5A
100
AcDbEntity
  8
0
 62
    28
100
AcDbFaceRecord
 10
0.0
 20
0.0
 30
0.0
 70
   128
 71
   169
 72
   166
 73
   168
  0
VERTEX
  5
1DD
330
5A
100
AcDbEntity
  8
0
 62
    28
100
AcDbFaceRecord
 10
0.0
 20
0.0
 30
0.0
 70
   128
 71
   168
 72
   166
 73
   167
  0
VERTEX
  5
1DE
330
5A
100
AcDbEntity
  8
0
 62
    28
100
AcDbFaceRecord
 10
0.0
 20
0.0
 30
0.0
 70
   128
 71
   173
 72
   170
 73
   171
  0
VERTEX
  5
1DF
330
5A
100
AcDbEntity
  8
0
 62
    28
100
AcDbFaceRecord
 10
0.0
 20
0.0
 30
0.0
 70
   128
 71
   173
 72
   171
 73
   172
  0
VERTEX
  5
1E0
330
5A
100
AcDbEntity
  8
0
 62
    28
100
AcDbFaceRecord
 10
0.0
 20
0.0
 30
0.0
 70
   128
 71
   180
 72
   173
 73
   177
  0
VERTEX
  5
1E1
330
5A
100
AcDbEntity
  8
0
 62
    28
100
AcDbFaceRecord
 10
0.0
 20
0.0
 30
0.0
 70
   128
 71
   177
 72
   173
 73
   175
  0
VERTEX
  5
1E2
330
5A
100
AcDbEntity
  8
0
 62
    28
100
AcDbFaceRecord
 10
0.0
 20
0.0
 30
0.0
 70
   128
 71
   175
 72
   173
 73
   174
  0
VERTEX
  5
1E3
330
5A
100
AcDbEntity
  8
0
 62
    28
100
AcDbFaceRecord
 10
0.0
 20
0.0
 30
0.0
 70
   128
 71
   177
 72
   175
 73
   176
  0
VERTEX
  5
1E4
330
5A
100
AcDbEntity
  8
0
 62
    28
100
AcDbFaceRecord
 10
0.0
 20
0.0
 30
0.0
 70
   128
 71
   180
 72
   177
 73
   178
  0
VERTEX
  5
1E5
330
5A
100
AcDbEntity
  8
0
 62
    28
100
AcDbFaceRecord
 10
0.0
 20
0.0
 30
0.0
 70
   128
 71
   180
 72
   178
 73
   179
  0
VERTEX
  5
1E6
330
5A
100
AcDbEntity
  8
0
 62
    28
100
AcDbFaceRecord
 10
0.0
 20
0.0
 30
0.0
 70
   128
 71
   159
 72
   180
 73
   182
  0
VERTEX
  5
1E7
330
5A
100
AcDbEntity
  8
0
 62
    28
100
AcDbFaceRecord
 10
0.0
 20
0.0
 30
0.0
 70
   128
 71
   182
 72
   180
 73
   181
  0
VERTEX
  5
1E8
330
5A
100
AcDbEntity
  8
0
 62
    28
100
AcDbFaceRecord
 10
0.0
 20
0.0
 30
0.0
 70
   128
 71
   183
 72
   184
 73
   207
  0
VERTEX
  5
1E9
330
5A
100
AcDbEntity
  8
0
 62
    28
100
AcDbFaceRecord
 10
0.0
 20
0.0
 30
0.0
 70
   128
 71
   207
 72
   184
 73
   206
  0
VERTEX
  5
1EA
330
5A
100
AcDbEntity
  8
0
 62
    28
100
AcDbFaceRecord
 10
0.0
 20
0.0
 30
0.0
 70
   128
 71
   206
 72
   184
 73
   185
  0
VERTEX
  5
1EB
330
5A
100
AcDbEntity
  8
0
 62
    28
100
AcDbFaceRecord
 10
0.0
 20
0.0
 30
0.0
 70
   128
 71
   206
 72
   185
 73
   205
  0
VERTEX
  5
1EC
330
5A
100
AcDbEntity
  8
0
 62
    28
100
AcDbFaceRecord
 10
0.0
 20
0.0
 30
0.0
 70
   128
 71
   205
 72
   185
 73
   186
  0
VERTEX
  5
1ED
330
5A
100
AcDbEntity
  8
0
 62
    28
100
AcDbFaceRecord
 10
0.0
 20
0.0
 30
0.0
 70
   128
 71
   205
 72
   186
 73
   204
  0
VERTEX
  5
1EE
330
5A
100
AcDbEntity
  8
0
 62
    28
100
AcDbFaceRecord
 10
0.0
 20
0.0
 30
0.0
 70
   128
 71
   204
 72
   186
 73
   187
  0
VERTEX
  5
1EF
330
5A
100
AcDbEntity
  8
0
 62
    28
100
AcDbFaceRecord
 10
0.0
 20
0.0
 30
0.0
 70
   128
 71
   204
 72
   187
 73
   203
  0
VERTEX
  5
1F0
330
5A
100
AcDbEntity
  8
0
 62
    28
100
AcDbFaceRecord
 10
0.0
 20
0.0
 30
0.0
 70
   128
 71
   203
 72
   187
 73
   188
  0
VERTEX
  5
1F1
330
5A
100
AcDbEntity
  8
0
 62
    28
100
AcDbFaceRecord
 10
0.0
 20
0.0
 30
0.0
 70
   128
 71
   203
 72
   188
 73
   202
  0
VERTEX
  5
1F2
330
5A
100
AcDbEntity
  8
0
 62
    28
100
AcDbFaceRecord
 10
0.0
 20
0.0
 30
0.0
 70
   128
 71
   202
 72
   188
 73
   189
  0
VERTEX
  5
1F3
330
5A
100
AcDbEntity
  8
0
 62
    28
100
AcDbFaceRecord
 10
0.0
 20
0.0
 30
0.0
 70
   128
 71
   202
 72
   189
 73
   201
  0
VERTEX
  5
1F4
330
5A
100
AcDbEntity
  8
0
 62
    28
100
AcDbFaceRecord
 10
0.0
 20
0.0
 30
0.0
 70
   128
 71
   201
 72
   189
 73
   190
  0
VERTEX
  5
1F5
330
5A
100
AcDbEntity
  8
0
 62
    28
100
AcDbFaceRecord
 10
0.0
 20
0.0
 30
0.0
 70
   128
 71
   201
 72
   190
 73
   200
  0
VERTEX
  5
1F6
330
5A
100
AcDbEntity
  8
0
 62
    28
100
AcDbFaceRecord
 10
0.0
 20
0.0
 30
0.0
 70
   128
 71
   200
 72
   190
 73
   191
  0
VERTEX
  5
1F7
330
5A
100
AcDbEntity
  8
0
 62
    28
100
AcDbFaceRecord
 10
0.0
 20
0.0
 30
0.0
 70
   128
 71
   200
 72
   191
 73
   199
  0
VERTEX
  5
1F8
330
5A
100
AcDbEntity
  8
0
 62
    28
100
AcDbFaceRecord
 10
0.0
 20
0.0
 30
0.0
 70
   128
 71
   199
 72
   191
 73
   192
  0
VERTEX
  5
1F9
330
5A
100
AcDbEntity
  8
0
 62
    28
100
AcDbFaceRecord
 10
0.0
 20
0.0
 30
0.0
 70
   128
 71
   199
 72
   192
 73
   198
  0
VERTEX
  5
1FA
330
5A
100
AcDbEntity
  8
0
 62
    28
100
AcDbFaceRecord
 10
0.0
 20
0.0
 30
0.0
 70
   128
 71
   198
 72
   192
 73
   193
  0
VERTEX
  5
1FB
330
5A
100
AcDbEntity
  8
0
 62
    28
100
AcDbFaceRecord
 10
0.0
 20
0.0
 30
0.0
 70
   128
 71
   198
 72
   193
 73
   197
  0
VERTEX
  5
1FC
330
5A
100
AcDbEntity
  8
0
 62
    28
100
AcDbFaceRecord
 10
0.0
 20
0.0
 30
0.0
 70
   128
 71
   197
 72
   193
 73
   194
  0
VERTEX
  5
1FD
330
5A
100
AcDbEntity
  8
0
 62
    28
100
AcDbFaceRecord
 10
0.0
 20
0.0
 30
0.0
 70
   128
 71
   197
 72
   194
 73
   196
  0
VERTEX
  5
1FE
330
5A
100
AcDbEntity
  8
0
 62
    28
100
AcDbFaceRecord
 10
0.0
 20
0.0
 30
0.0
 70
   128
 71
   196
 72
   194
 73
   195
  0
VERTEX
  5
1FF
330
5A
100
AcDbEntity
  8
0
 62
    28
100
AcDbFaceRecord
 10
0.0
 20
0.0
 30
0.0
 70
   128
 71
   183
 72
   207
 73
   208
  0
VERTEX
  5
200
330
5A
100
AcDbEntity
  8
0
 62
    28
100
AcDbFaceRecord
 10
0.0
 20
0.0
 30
0.0
 70
   128
 71
   209
 72
   210
 73
   232
  0
VERTEX
  5
201
330
5A
100
AcDbEntity
  8
0
 62
    28
100
AcDbFaceRecord
 10
0.0
 20
0.0
 30
0.0
 70
   128
 71
   232
 72
   210
 73
   231
  0
VERTEX
  5
202
330
5A
100
AcDbEntity
  8
0
 62
    28
100
AcDbFaceRecord
 10
0.0
 20
0.0
 30
0.0
 70
   128
 71
   231
 72
   210
 73
   211
  0
VERTEX
  5
203
330
5A
100
AcDbEntity
  8
0
 62
    28
100
AcDbFaceRecord
 10
0.0
 20
0.0
 30
0.0
 70
   128
 71
   231
 72
   211
 73
   230
  0
VERTEX
  5
204
330
5A
100
AcDbEntity
  8
0
 62
    28
100
AcDbFaceRecord
 10
0.0
 20
0.0
 30
0.0
 70
   128
 71
   230
 72
   211
 73
   212
  0
VERTEX
  5
205
330
5A
100
AcDbEntity
  8
0
 62
    28
100
AcDbFaceRecord
 10
0.0
 20
0.0
 30
0.0
 70
   128
 71
   230
 72
   212
 73
   229
  0
VERTEX
  5
206
330
5A
100
AcDbEntity
  8
0
 62
    28
100
AcDbFaceRecord
 10
0.0
 20
0.0
 30
0.0
 70
   128
 71
   229
 72
   212
 73
   213
  0
VERTEX
  5
207
330
5A
100
AcDbEntity
  8
0
 62
    28
100
AcDbFaceRecord
 10
0.0
 20
0.0
 30
0.0
 70
   128
 71
   229
 72
   213
 73
   228
  0
VERTEX
  5
208
330
5A
100
AcDbEntity
  8
0
 62
    28
100
AcDbFaceRecord
 10
0.0
 20
0.0
 30
0.0
 70
   128
 71
   228
 72
   213
 73
   214
  0
VERTEX
  5
209
330
5A
100
AcDbEntity
  8
0
 62
    28
100
AcDbFaceRecord
 10
0.0
 20
0.0
 30
0.0
 70
   128
 71
   228
 72
   214
 73
   227
  0
VERTEX
  5
20A
330
5A
100
AcDbEntity
  8
0
 62
    28
100
AcDbFaceRecord
 10
0.0
 20
0.0
 30
0.0
 70
   128
 71
   227
 72
   214
 73
   215
  0
VERTEX
  5
20B
330
5A
100
AcDbEntity
  8
0
 62
    28
100
AcDbFaceRecord
 10
0.0
 20
0.0
 30
0.0
 70
   128
 71
   227
 72
   215
 73
   226
  0
VERTEX
  5
20C
330
5A
100
AcDbEntity
  8
0
 62
    28
100
AcDbFaceRecord
 10
0.0
 20
0.0
 30
0.0
 70
   128
 71
   226
 72
   215
 73
   216
  0
VERTEX
  5
20D
330
5A
100
AcDbEntity
  8
0
 62
    28
100
AcDbFaceRecord
 10
0.0
 20
0.0
 30
0.0
 70
   128
 71
   226
 72
   216
 73
   225
  0
VERTEX
  5
20E
330
5A
100
AcDbEntity
  8
0
 62
    28
100
AcDbFaceRecord
 10
0.0
 20
0.0
 30
0.0
 70
   128
 71
   225
 72
   216
 73
   217
  0
VERTEX
  5
20F
330
5A
100
AcDbEntity
  8
0
 62
    28
100
AcDbFaceRecord
 10
0.0
 20
0.0
 30
0.0
 70
   128
 71
   225
 72
   217
 73
   224
  0
VERTEX
  5
210
330
5A
100
AcDbEntity
  8
0
 62
    28
100
AcDbFaceRecord
 10
0.0
 20
0.0
 30
0.0
 70
   128
 71
   224
 72
   217
 73
   218
  0
VERTEX
  5
211
330
5A
100
AcDbEntity
  8
0
 62
    28
100
AcDbFaceRecord
 10
0.0
 20
0.0
 30
0.0
 70
   128
 71
   224
 72
   218
 73
   223
  0
VERTEX
  5
212
330
5A
100
AcDbEntity
  8
0
 62
    28
100
AcDbFaceRecord
 10
0.0
 20
0.0
 30
0.0
 70
   128
 71
   223
 72
   218
 73
   219
  0
VERTEX
  5
213
330
5A
100
AcDbEntity
  8
0
 62
    28
100
AcDbFaceRecord
 10
0.0
 20
0.0
 30
0.0
 70
   128
 71
   223
 72
   219
 73
   222
  0
VERTEX
  5
214
330
5A
100
AcDbEntity
  8
0
 62
    28
100
AcDbFaceRecord
 10
0.0
 20
0.0
 30
0.0
 70
   128
 71
   222
 72
   219
 73
   220
  0
VERTEX
  5
215
330
5A
100
AcDbEntity
  8
0
 62
    28
100
AcDbFaceRecord
 10
0.0
 20
0.0
 30
0.0
 70
   128
 71
   222
 72
   220
 73
   208
  0
VERTEX
  5
216
330
5A
100
AcDbEntity
  8
0
 62
    28
100
AcDbFaceRecord
 10
0.0
 20
0.0
 30
0.0
 70
   128
 71
   208
 72
   220
 73
   221
  0
VERTEX
  5
217
330
5A
100
AcDbEntity
  8
0
 62
    28
100
AcDbFaceRecord
 10
0.0
 20
0.0
 30
0.0
 70
   128
 71
   209
 72
   232
 73
   233
  0
SEQEND
  5
218
330
5A
100
AcDbEntity
  8
0
 62
    28
  0
INSERT
  5
21A
330
56
100
AcDbEntity
  8
0
100
AcDbBlockReference
  2
*U8
 10
0.0
 20
0.0
 30
0.0
  0
ENDBLK
  5
59
330
56
100
AcDbEntity
  8
0
100
AcDbBlockEnd
  0
BLOCK
  5
21B
330
219
100
AcDbEntity
  8
0
100
AcDbBlockBegin
  2
*U8
 70
     1
 10
0.0
 20
0.0
 30
0.0
  3
*U8
  1

  0
INSERT
  5
21D
330
219
100
AcDbEntity
  8
0
100
AcDbBlockReference
  2
_STYLE_LIBRARY__DWFW3D_PUB
 10
0.0
 20
0.0
 30
0.0
  0
POLYLINE
  5
240
330
219
100
AcDbEntity
  8
0
 62
    18
100
AcDb3dPolyline
 66
     1
 10
0.0
 20
0.0
 30
0.0
 70
     8
  0
VERTEX
  5
241
330
240
100
AcDbEntity
  8
0
 62
    18
100
AcDbVertex
100
AcDb3dPolylineVertex
 10
0.3333333432674408
 20
0.5
 30
-0.0000000000000007
 70
    32
  0
VERTEX
  5
242
330
240
100
AcDbEntity
  8
0
 62
    18
100
AcDbVertex
100
AcDb3dPolylineVertex
 10
0.3333333432674408
 20
0.5
 30
0.5
 70
    32
  0
SEQEND
  5
243
330
240
100
AcDbEntity
  8
0
 62
    18
  0
POLYLINE
  5
244
330
219
100
AcDbEntity
  8
0
 62
    18
100
AcDb3dPolyline
 66
     1
 10
0.0
 20
0.0
 30
0.0
 70
     8
  0
VERTEX
  5
245
330
244
100
AcDbEntity
  8
0
 62
    18
100
AcDbVertex
100
AcDb3dPolylineVertex
 10
0.3333333432674408
 20
0.5
 30
0.5
 70
    32
  0
VERTEX
  5
246
330
244
100
AcDbEntity
  8
0
 62
    18
100
AcDbVertex
100
AcDb3dPolylineVertex
 10
0.3333333432674408
 20
-0.0000000000000131
 30
0.5
 70
    32
  0
SEQEND
  5
247
330
244
100
AcDbEntity
  8
0
 62
    18
  0
POLYLINE
  5
248
330
219
100
AcDbEntity
  8
0
 62
    18
100
AcDb3dPolyline
 66
     1
 10
0.0
 20
0.0
 30
0.0
 70
     8
  0
VERTEX
  5
249
330
248
100
AcDbEntity
  8
0
 62
    18
100
AcDbVertex
100
AcDb3dPolylineVertex
 10
0.3333333432674408
 20
-0.0000000000000132
 30
0.5
 70
    32
  0
VERTEX
  5
24A
330
248
100
AcDbEntity
  8
0
 62
    18
100
AcDbVertex
100
AcDb3dPolylineVertex
 10
0.3333333432674408
 20
-0.0000000000000165
 30
-0.5416666865348816
 70
    32
  0
SEQEND
  5
24B
330
248
100
AcDbEntity
  8
0
 62
    18
  0
POLYLINE
  5
24C
330
219
100
AcDbEntity
  8
0
 62
    18
100
AcDb3dPolyline
 66
     1
 10
0.0
 20
0.0
 30
0.0
 70
     8
  0
VERTEX
  5
24D
330
24C
100
AcDbEntity
  8
0
 62
    18
100
AcDbVertex
100
AcDb3dPolylineVertex
 10
0.3333333432674408
 20
-0.0000000000000165
 30
-0.5416666865348816
 70
    32
  0
VERTEX
  5
24E
330
24C
100
AcDbEntity
  8
0
 62
    18
100
AcDbVertex
100
AcDb3dPolylineVertex
 10
0.3333333432674408
 20
0.0104166669771075
 30
-0.5416666865348816
 70
    32
  0
SEQEND
  5
24F
330
24C
100
AcDbEntity
  8
0
 62
    18
  0
POLYLINE
  5
250
330
219
100
AcDbEntity
  8
0
 62
    18
100
AcDb3dPolyline
 66
     1
 10
0.0
 20
0.0
 30
0.0
 70
     8
  0
VERTEX
  5
251
330
250
100
AcDbEntity
  8
0
 62
    18
100
AcDbVertex
100
AcDb3dPolylineVertex
 10
0.3333333432674408
 20
0.0104166669771075
 30
-0.5416666865348816
 70
    32
  0
VERTEX
  5
252
330
250
100
AcDbEntity
  8
0
 62
    18
100
AcDbVertex
100
AcDb3dPolylineVertex
 10
0.3333333432674408
 20
0.0104166669771075
 30
-0.4895833432674408
 70
    32
  0
SEQEND
  5
253
330
250
100
AcDbEntity
  8
0
 62
    18
  0
POLYLINE
  5
254
330
219
100
AcDbEntity
  8
0
 62
    18
100
AcDb3dPolyline
 66
     1
 10
0.0
 20
0.0
 30
0.0
 70
     8
  0
VERTEX
  5
255
330
254
100
AcDbEntity
  8
0
 62
    18
100
AcDbVertex
100
AcDb3dPolylineVertex
 10
0.3333333432674408
 20
0.0104166669771075
 30
-0.4895833432674408
 70
    32
  0
VERTEX
  5
256
330
254
100
AcDbEntity
  8
0
 62
    18
100
AcDbVertex
100
AcDb3dPolylineVertex
 10
0.3333333432674408
 20
0.5
 30
-0.0000000000000007
 70
    32
  0
SEQEND
  5
257
330
254
100
AcDbEntity
  8
0
 62
    18
  0
POLYLINE
  5
258
330
219
100
AcDbEntity
  8
0
 62
    18
100
AcDb3dPolyline
 66
     1
 10
0.0
 20
0.0
 30
0.0
 70
     8
  0
VERTEX
  5
259
330
258
100
AcDbEntity
  8
0
 62
    18
100
AcDbVertex
100
AcDb3dPolylineVertex
 10
-0.3333333432674408
 20
0.5
 30
-0.0000000000000007
 70
    32
  0
VERTEX
  5
25A
330
258
100
AcDbEntity
  8
0
 62
    18
100
AcDbVertex
100
AcDb3dPolylineVertex
 10
-0.3333333432674408
 20
0.0104166669771075
 30
-0.4895833432674408
 70
    32
  0
SEQEND
  5
25B
330
258
100
AcDbEntity
  8
0
 62
    18
  0
POLYLINE
  5
25C
330
219
100
AcDbEntity
  8
0
 62
    18
100
AcDb3dPolyline
 66
     1
 10
0.0
 20
0.0
 30
0.0
 70
     8
  0
VERTEX
  5
25D
330
25C
100
AcDbEntity
  8
0
 62
    18
100
AcDbVertex
100
AcDb3dPolylineVertex
 10
-0.3333333432674408
 20
0.0104166669771075
 30
-0.4895833432674408
 70
    32
  0
VERTEX
  5
25E
330
25C
100
AcDbEntity
  8
0
 62
    18
100
AcDbVertex
100
AcDb3dPolylineVertex
 10
-0.3333333432674408
 20
0.0104166669771075
 30
-0.5416666865348816
 70
    32
  0
SEQEND
  5
25F
330
25C
100
AcDbEntity
  8
0
 62
    18
  0
POLYLINE
  5
260
330
219
100
AcDbEntity
  8
0
 62
    18
100
AcDb3dPolyline
 66
     1
 10
0.0
 20
0.0
 30
0.0
 70
     8
  0
VERTEX
  5
261
330
260
100
AcDbEntity
  8
0
 62
    18
100
AcDbVertex
100
AcDb3dPolylineVertex
 10
-0.3333333432674408
 20
0.0104166669771075
 30
-0.5416666865348816
 70
    32
  0
VERTEX
  5
262
330
260
100
AcDbEntity
  8
0
 62
    18
100
AcDbVertex
100
AcDb3dPolylineVertex
 10
-0.3333333432674408
 20
-0.0000000000000097
 30
-0.5416666865348816
 70
    32
  0
SEQEND
  5
263
330
260
100
AcDbEntity
  8
0
 62
    18
  0
POLYLINE
  5
264
330
219
100
AcDbEntity
  8
0
 62
    18
100
AcDb3dPolyline
 66
     1
 10
0.0
 20
0.0
 30
0.0
 70
     8
  0
VERTEX
  5
265
330
264
100
AcDbEntity
  8
0
 62
    18
100
AcDbVertex
100
AcDb3dPolylineVertex
 10
-0.3333333432674408
 20
-0.0000000000000097
 30
-0.5416666865348816
 70
    32
  0
VERTEX
  5
266
330
264
100
AcDbEntity
  8
0
 62
    18
100
AcDbVertex
100
AcDb3dPolylineVertex
 10
-0.3333333432674408
 20
-0.0000000000000063
 30
0.5
 70
    32
  0
SEQEND
  5
267
330
264
100
AcDbEntity
  8
0
 62
    18
  0
POLYLINE
  5
268
330
219
100
AcDbEntity
  8
0
 62
    18
100
AcDb3dPolyline
 66
     1
 10
0.0
 20
0.0
 30
0.0
 70
     8
  0
VERTEX
  5
269
330
268
100
AcDbEntity
  8
0
 62
    18
100
AcDbVertex
100
AcDb3dPolylineVertex
 10
-0.3333333432674408
 20
-0.0000000000000063
 30
0.5
 70
    32
  0
VERTEX
  5
26A
330
268
100
AcDbEntity
  8
0
 62
    18
100
AcDbVertex
100
AcDb3dPolylineVertex
 10
-0.3333333432674408
 20
0.5
 30
0.5
 70
    32
  0
SEQEND
  5
26B
330
268
100
AcDbEntity
  8
0
 62
    18
  0
POLYLINE
  5
26C
330
219
100
AcDbEntity
  8
0
 62
    18
100
AcDb3dPolyline
 66
     1
 10
0.0
 20
0.0
 30
0.0
 70
     8
  0
VERTEX
  5
26D
330
26C
100
AcDbEntity
  8
0
 62
    18
100
AcDbVertex
100
AcDb3dPolylineVertex
 10
-0.3333333432674408
 20
0.5
 30
0.5
 70
    32
  0
VERTEX
  5
26E
330
26C
100
AcDbEntity
  8
0
 62
    18
100
AcDbVertex
100
AcDb3dPolylineVertex
 10
-0.3333333432674408
 20
0.5
 30
-0.0000000000000007
 70
    32
  0
SEQEND
  5
26F
330
26C
100
AcDbEntity
  8
0
 62
    18
  0
POLYLINE
  5
270
330
219
100
AcDbEntity
  8
0
 62
    18
100
AcDb3dPolyline
 66
     1
 10
0.0
 20
0.0
 30
0.0
 70
     8
  0
VERTEX
  5
271
330
270
100
AcDbEntity
  8
0
 62
    18
100
AcDbVertex
100
AcDb3dPolylineVertex
 10
0.3333333432674408
 20
0.5
 30
-0.0000000000000007
 70
    32
  0
VERTEX
  5
272
330
270
100
AcDbEntity
  8
0
 62
    18
100
AcDbVertex
100
AcDb3dPolylineVertex
 10
-0.3333333432674408
 20
0.5
 30
-0.0000000000000007
 70
    32
  0
SEQEND
  5
273
330
270
100
AcDbEntity
  8
0
 62
    18
  0
ARC
  5
274
330
219
100
AcDbEntity
  8
0
 62
    18
100
AcDbCircle
 10
-0.2291666716337204
 20
0.3958333432674408
 30
0.5
 40
0.03125
210
0.0
220
1.0
230
0.0
100
AcDbArc
 50
270.0
 51
90.0
  0
ARC
  5
275
330
219
100
AcDbEntity
  8
0
 62
    18
100
AcDbCircle
 10
-0.2291666567325557
 20
0.3958333432674408
 30
0.5
 40
0.0312500000000036
210
0.0
220
1.0
230
0.0
100
AcDbArc
 50
90.0000273207632
 51
269.9999726792368
  0
ARC
  5
276
330
219
100
AcDbEntity
  8
0
 62
    18
100
AcDbCircle
 10
0.2291666567325557
 20
0.3958333432674408
 30
0.5
 40
0.0312500000000036
210
0.0
220
1.0
230
0.0
100
AcDbArc
 50
270.0000273207632
 51
89.9999726792368
  0
ARC
  5
277
330
219
100
AcDbEntity
  8
0
 62
    18
100
AcDbCircle
 10
0.2291666716337204
 20
0.3958333432674408
 30
0.5
 40
0.03125
210
0.0
220
1.0
230
0.0
100
AcDbArc
 50
90.0
 51
270.0
  0
POLYLINE
  5
278
330
219
100
AcDbEntity
  8
0
 62
    18
100
AcDb3dPolyline
 66
     1
 10
0.0
 20
0.0
 30
0.0
 70
     8
  0
VERTEX
  5
279
330
278
100
AcDbEntity
  8
0
 62
    18
100
AcDbVertex
100
AcDb3dPolylineVertex
 10
-0.3333333432674408
 20
0.5
 30
0.5
 70
    32
  0
VERTEX
  5
27A
330
278
100
AcDbEntity
  8
0
 62
    18
100
AcDbVertex
100
AcDb3dPolylineVertex
 10
0.3333333432674408
 20
0.5
 30
0.5
 70
    32
  0
SEQEND
  5
27B
330
278
100
AcDbEntity
  8
0
 62
    18
  0
POLYLINE
  5
27C
330
219
100
AcDbEntity
  8
0
 62
    18
100
AcDb3dPolyline
 66
     1
 10
0.0
 20
0.0
 30
0.0
 70
     8
  0
VERTEX
  5
27D
330
27C
100
AcDbEntity
  8
0
 62
    18
100
AcDbVertex
100
AcDb3dPolylineVertex
 10
-0.3333333432674408
 20
-0.0000000000000063
 30
0.5
 70
    32
  0
VERTEX
  5
27E
330
27C
100
AcDbEntity
  8
0
 62
    18
100
AcDbVertex
100
AcDb3dPolylineVertex
 10
0.3333333432674408
 20
-0.0000000000000132
 30
0.5
 70
    32
  0
SEQEND
  5
27F
330
27C
100
AcDbEntity
  8
0
 62
    18
  0
POLYLINE
  5
280
330
219
100
AcDbEntity
  8
0
 62
    18
100
AcDb3dPolyline
 66
     1
 10
0.0
 20
0.0
 30
0.0
 70
     8
  0
VERTEX
  5
281
330
280
100
AcDbEntity
  8
0
 62
    18
100
AcDbVertex
100
AcDb3dPolylineVertex
 10
-0.3333333432674408
 20
-0.0000000000000097
 30
-0.5416666865348816
 70
    32
  0
VERTEX
  5
282
330
280
100
AcDbEntity
  8
0
 62
    18
100
AcDbVertex
100
AcDb3dPolylineVertex
 10
0.3333333432674408
 20
-0.0000000000000165
 30
-0.5416666865348816
 70
    32
  0
SEQEND
  5
283
330
280
100
AcDbEntity
  8
0
 62
    18
  0
POLYLINE
  5
284
330
219
100
AcDbEntity
  8
0
 62
    18
100
AcDb3dPolyline
 66
     1
 10
0.0
 20
0.0
 30
0.0
 70
     8
  0
VERTEX
  5
285
330
284
100
AcDbEntity
  8
0
 62
    18
100
AcDbVertex
100
AcDb3dPolylineVertex
 10
-0.3333333432674408
 20
0.0104166669771075
 30
-0.5416666865348816
 70
    32
  0
VERTEX
  5
286
330
284
100
AcDbEntity
  8
0
 62
    18
100
AcDbVertex
100
AcDb3dPolylineVertex
 10
0.3333333432674408
 20
0.0104166669771075
 30
-0.5416666865348816
 70
    32
  0
SEQEND
  5
287
330
284
100
AcDbEntity
  8
0
 62
    18
  0
POLYLINE
  5
288
330
219
100
AcDbEntity
  8
0
 62
    18
100
AcDb3dPolyline
 66
     1
 10
0.0
 20
0.0
 30
0.0
 70
     8
  0
VERTEX
  5
289
330
288
100
AcDbEntity
  8
0
 62
    18
100
AcDbVertex
100
AcDb3dPolylineVertex
 10
-0.3333333432674408
 20
0.0104166669771075
 30
-0.4895833432674408
 70
    32
  0
VERTEX
  5
28A
330
288
100
AcDbEntity
  8
0
 62
    18
100
AcDbVertex
100
AcDb3dPolylineVertex
 10
0.3333333432674408
 20
0.0104166669771075
 30
-0.4895833432674408
 70
    32
  0
SEQEND
  5
28B
330
288
100
AcDbEntity
  8
0
 62
    18
  0
ARC
  5
28C
330
219
100
AcDbEntity
  8
0
 62
    18
100
AcDbCircle
 10
0.2291666716337204
 20
0.3958333432674408
 30
-0.5833333134651184
 40
0.03125
210
0.0
220
-1.0
230
0.0
100
AcDbArc
 50
90.0
 51
270.0
  0
ARC
  5
28D
330
219
100
AcDbEntity
  8
0
 62
    18
100
AcDbCircle
 10
0.2291666567325557
 20
0.3958333432674408
 30
-0.5833333134651184
 40
0.0312500000000036
210
0.0
220
-1.0
230
0.0
100
AcDbArc
 50
270.0000273207632
 51
89.9999726792368
  0
POLYLINE
  5
28E
330
219
100
AcDbEntity
  8
0
 62
    18
100
AcDb3dPolyline
 66
     1
 10
0.0
 20
0.0
 30
0.0
 70
     8
  0
VERTEX
  5
28F
330
28E
100
AcDbEntity
  8
0
 62
    18
100
AcDbVertex
100
AcDb3dPolylineVertex
 10
0.2291666716337204
 20
0.5833333134651184
 30
0.3645833432674408
 70
    32
  0
VERTEX
  5
290
330
28E
100
AcDbEntity
  8
0
 62
    18
100
AcDbVertex
100
AcDb3dPolylineVertex
 10
0.2291666716337204
 20
0.5
 30
0.3645833432674408
 70
    32
  0
SEQEND
  5
291
330
28E
100
AcDbEntity
  8
0
 62
    18
  0
POLYLINE
  5
292
330
219
100
AcDbEntity
  8
0
 62
    18
100
AcDb3dPolyline
 66
     1
 10
0.0
 20
0.0
 30
0.0
 70
     8
  0
VERTEX
  5
293
330
292
100
AcDbEntity
  8
0
 62
    18
100
AcDbVertex
100
AcDb3dPolylineVertex
 10
0.2291666716337204
 20
0.5
 30
0.4270833432674408
 70
    32
  0
VERTEX
  5
294
330
292
100
AcDbEntity
  8
0
 62
    18
100
AcDbVertex
100
AcDb3dPolylineVertex
 10
0.2291666716337204
 20
0.5833333134651184
 30
0.4270833432674408
 70
    32
  0
SEQEND
  5
295
330
292
100
AcDbEntity
  8
0
 62
    18
  0
ARC
  5
296
330
219
100
AcDbEntity
  8
0
 62
    18
100
AcDbCircle
 10
-0.2291666567325557
 20
0.3958333432674408
 30
-0.5833333134651184
 40
0.0312500000000036
210
0.0
220
-1.0
230
0.0
100
AcDbArc
 50
90.0000273207632
 51
269.9999726792368
  0
ARC
  5
297
330
219
100
AcDbEntity
  8
0
 62
    18
100
AcDbCircle
 10
-0.2291666716337204
 20
0.3958333432674408
 30
-0.5833333134651184
 40
0.03125
210
0.0
220
-1.0
230
0.0
100
AcDbArc
 50
270.0
 51
90.0
  0
POLYLINE
  5
298
330
219
100
AcDbEntity
  8
0
 62
    18
100
AcDb3dPolyline
 66
     1
 10
0.0
 20
0.0
 30
0.0
 70
     8
  0
VERTEX
  5
299
330
298
100
AcDbEntity
  8
0
 62
    18
100
AcDbVertex
100
AcDb3dPolylineVertex
 10
-0.2291666716337204
 20
0.5833333134651184
 30
0.3645833432674408
 70
    32
  0
VERTEX
  5
29A
330
298
100
AcDbEntity
  8
0
 62
    18
100
AcDbVertex
100
AcDb3dPolylineVertex
 10
-0.2291666716337204
 20
0.5
 30
0.3645833432674408
 70
    32
  0
SEQEND
  5
29B
330
298
100
AcDbEntity
  8
0
 62
    18
  0
POLYLINE
  5
29C
330
219
100
AcDbEntity
  8
0
 62
    18
100
AcDb3dPolyline
 66
     1
 10
0.0
 20
0.0
 30
0.0
 70
     8
  0
VERTEX
  5
29D
330
29C
100
AcDbEntity
  8
0
 62
    18
100
AcDbVertex
100
AcDb3dPolylineVertex
 10
-0.2291666716337204
 20
0.5
 30
0.4270833432674408
 70
    32
  0
VERTEX
  5
29E
330
29C
100
AcDbEntity
  8
0
 62
    18
100
AcDbVertex
100
AcDb3dPolylineVertex
 10
-0.2291666716337204
 20
0.5833333134651184
 30
0.4270833432674408
 70
    32
  0
SEQEND
  5
29F
330
29C
100
AcDbEntity
  8
0
 62
    18
  0
ENDBLK
  5
21C
330
219
100
AcDbEntity
  8
0
100
AcDbBlockEnd
  0
ENDSEC
  0
SECTION
  2
ENTITIES
  0
INSERT
  5
43
330
1F
100
AcDbEntity
  8
0
100
AcDbBlockReference
  2
*U2
 10
0.0
 20
0.0
 30
0.0
  0
ENDSEC
  0
SECTION
  2
OBJECTS
  0
DICTIONARY
  5
C
330
0
100
AcDbDictionary
  3
ACAD_GROUP
350
D
  3
ACAD_LAYOUT
350
1A
  3
ACAD_MATERIAL
350
3B
  3
ACAD_MLEADERSTYLE
350
2C2
  3
ACAD_MLINESTYLE
350
17
  3
ACAD_PLOTSETTINGS
350
19
  3
ACAD_SCALELIST
350
21E
  3
ACAD_VISUALSTYLE
350
2A
  3
ACDBHEADERROUNDTRIPXREC
350
2A0
  3
ACDBVARIABLEDICTIONARY
350
2C0
  0
DICTIONARY
  5
D
102
{ACAD_REACTORS
330
C
102
}
330
C
100
AcDbDictionary
  0
DICTIONARY
  5
1A
102
{ACAD_REACTORS
330
C
102
}
330
C
100
AcDbDictionary
  0
DICTIONARY
  5
3B
102
{ACAD_REACTORS
330
C
102
}
330
C
100
AcDbDictionary
  3
BYBLOCK
350
3D
  3
BYLAYER
350
3C
  3
GLOBAL
350
3E
  0
DICTIONARY
  5
2C2
102
{ACAD_REACTORS
330
C
102
}
330
C
100
AcDbDictionary
  0
DICTIONARY
  5
17
102
{ACAD_REACTORS
330
C
102
}
330
C
100
AcDbDictionary
  3
STANDARD
350
18
  0
DICTIONARY
  5
19
102
{ACAD_REACTORS
330
C
102
}
330
C
100
AcDbDictionary
  0
DICTIONARY
  5
21E
102
{ACAD_REACTORS
330
C
102
}
330
C
100
AcDbDictionary
  3
A0
350
21F
  3
A1
350
220
  3
A2
350
221
  3
A3
350
222
  3
A4
350
223
  3
A5
350
224
  3
A6
350
225
  3
A7
350
226
  3
A8
350
227
  3
A9
350
228
  3
B0
350
229
  3
B1
350
22A
  3
B2
350
22B
  3
B3
350
22C
  3
B4
350
22D
  3
B5
350
22E
  3
B6
350
22F
  3
B7
350
230
  3
B8
350
231
  3
B9
350
232
  3
C0
350
233
  3
C1
350
234
  3
C2
350
235
  3
C3
350
236
  3
C4
350
237
  3
C5
350
238
  3
C6
350
239
  3
C7
350
23A
  3
C8
350
23B
  3
C9
350
23C
  3
D0
350
23D
  3
D1
350
23E
  3
D2
350
23F
  0
DICTIONARY
  5
2A
102
{ACAD_REACTORS
330
C
102
}
330
C
100
AcDbDictionary
  3
2DWIREFRAME
350
2F
  3
3D_HIDDEN
350
31
  3
3DWIREFRAME
350
30
  3
BASIC
350
32
  3
BRIGHTEN
350
36
  3
COLORCHANGE
350
3A
  3
CONCEPTUAL
350
34
  3
DIM
350
35
  3
FACEPATTERN
350
39
  3
FLAT
350
2B
  3
FLATWITHEDGES
350
2C
  3
GOURAUD
350
2D
  3
GOURAUDWITHEDGES
350
2E
  3
LINEPATTERN
350
38
  3
REALISTIC
350
33
  3
THICKEN
350
37
  0
DICTIONARY
  5
2A0
102
{ACAD_REACTORS
330
C
102
}
330
C
100
AcDbDictionary
  3
CEPSNTYPE
350
2A9
  3
DIMSTYLEDATA
350
2BF
  3
FINGERPRINTGUID
350
2AA
  3
HYPERLINKBASE
350
2A3
  3
INSUNITS
350
2A8
  3
LAYOUTDICT
350
2A5
  3
LWETCUNION
350
2A7
  3
PLOTSETDICT
350
2A6
  3
PSVPSCALE
350
2AC
  3
PUCSBASE
350
2AF
  3
PUCSORGBACK
350
2B5
  3
PUCSORGBOTTOM
350
2B1
  3
PUCSORGFRONT
350
2B4
  3
PUCSORGLEFT
350
2B2
  3
PUCSORGRIGHT
350
2B3
  3
PUCSORGTOP
350
2B0
  3
PUCSORTHOREF
350
2AD
  3
PUCSORTHOVIEW
350
2AE
  3
STYLESHEET
350
2A4
  3
TSTACKALIGN
350
2A1
  3
TSTACKSIZE
350
2A2
  3
UCSBASE
350
2B8
  3
UCSORGBACK
350
2BE
  3
UCSORGBOTTOM
350
2BA
  3
UCSORGFRONT
350
2BD
  3
UCSORGLEFT
350
2BB
  3
UCSORGRIGHT
350
2BC
  3
UCSORGTOP
350
2B9
  3
UCSORTHOREF
350
2B6
  3
UCSORTHOVIEW
350
2B7
  3
VERSIONGUID
350
2AB
  0
DICTIONARY
  5
2C0
102
{ACAD_REACTORS
330
C
102
}
330
C
100
AcDbDictionary
  3
CANNOSCALE
350
2C3
  3
DIMASSOC
350
2C4
  3
HIDETEXT
350
2C5
  0
MATERIAL
  5
3D
102
{ACAD_REACTORS
330
3B
102
}
102
{ACAD_XDICTIONARY
360
2C8
102
}
330
3B
100
AcDbMaterial
  1
ByBlock
  0
MATERIAL
  5
3C
102
{ACAD_REACTORS
330
3B
102
}
102
{ACAD_XDICTIONARY
360
2C6
102
}
330
3B
100
AcDbMaterial
  1
ByLayer
  0
MATERIAL
  5
3E
102
{ACAD_REACTORS
330
3B
102
}
102
{ACAD_XDICTIONARY
360
2CA
102
}
330
3B
100
AcDbMaterial
  1
Global
  0
MLINESTYLE
  5
18
102
{ACAD_REACTORS
330
17
102
}
330
17
100
AcDbMlineStyle
  2
Standard
 70
     0
  3

 62
   256
 51
90.0
 52
90.0
 71
     2
 49
0.5
 62
   256
  6
BYLAYER
 49
-0.5
 62
   256
  6
BYLAYER
  0
ACAD_PROXY_OBJECT
  5
21F
102
{ACAD_REACTORS
330
21E
102
}
330
21E
100
AcDbProxyObject
 90
      499
 91
      503
 93
       41
310
903313A31580
  0
ACAD_PROXY_OBJECT
  5
220
102
{ACAD_REACTORS
330
21E
102
}
330
21E
100
AcDbProxyObject
 90
      499
 91
      503
 93
      105
310
903313A324000000000000004000
  0
ACAD_PROXY_OBJECT
  5
221
102
{ACAD_REACTORS
330
21E
102
}
330
21E
100
AcDbProxyObject
 90
      499
 91
      503
 93
      105
310
903313A344000000000000104000
  0
ACAD_PROXY_OBJECT
  5
222
102
{ACAD_REACTORS
330
21E
102
}
330
21E
100
AcDbProxyObject
 90
      499
 91
      503
 93
      105
310
903313A354000000000000144000
  0
ACAD_PROXY_OBJECT
  5
223
102
{ACAD_REACTORS
330
21E
102
}
330
21E
100
AcDbProxyObject
 90
      499
 91
      503
 93
      105
310
903313A384000000000000204000
  0
ACAD_PROXY_OBJECT
  5
224
102
{ACAD_REACTORS
330
21E
102
}
330
21E
100
AcDbProxyObject
 90
      499
 91
      503
 93
      113
310
904313A31304000000000000244000
  0
ACAD_PROXY_OBJECT
  5
225
102
{ACAD_REACTORS
330
21E
102
}
330
21E
100
AcDbProxyObject
 90
      499
 91
      503
 93
      113
310
904313A31364000000000000304000
  0
ACAD_PROXY_OBJECT
  5
226
102
{ACAD_REACTORS
330
21E
102
}
330
21E
100
AcDbProxyObject
 90
      499
 91
      503
 93
      113
310
904313A32304000000000000344000
  0
ACAD_PROXY_OBJECT
  5
227
102
{ACAD_REACTORS
330
21E
102
}
330
21E
100
AcDbProxyObject
 90
      499
 91
      503
 93
      113
310
904313A333040000000000003E4000
  0
ACAD_PROXY_OBJECT
  5
228
102
{ACAD_REACTORS
330
21E
102
}
330
21E
100
AcDbProxyObject
 90
      499
 91
      503
 93
      113
310
904313A34304000000000000444000
  0
ACAD_PROXY_OBJECT
  5
229
102
{ACAD_REACTORS
330
21E
102
}
330
21E
100
AcDbProxyObject
 90
      499
 91
      503
 93
      113
310
904313A35304000000000000494000
  0
ACAD_PROXY_OBJECT
  5
22A
102
{ACAD_REACTORS
330
21E
102
}
330
21E
100
AcDbProxyObject
 90
      499
 91
      503
 93
      121
310
905313A3130304000000000000594000
  0
ACAD_PROXY_OBJECT
  5
22B
102
{ACAD_REACTORS
330
21E
102
}
330
21E
100
AcDbProxyObject
 90
      499
 91
      503
 93
      105
310
903323A310000000000000010100
  0
ACAD_PROXY_OBJECT
  5
22C
102
{ACAD_REACTORS
330
21E
102
}
330
21E
100
AcDbProxyObject
 90
      499
 91
      503
 93
      105
310
903343A310000000000000410100
  0
ACAD_PROXY_OBJECT
  5
22D
102
{ACAD_REACTORS
330
21E
102
}
330
21E
100
AcDbProxyObject
 90
      499
 91
      503
 93
      105
310
903383A310000000000000810100
  0
ACAD_PROXY_OBJECT
  5
22E
102
{ACAD_REACTORS
330
21E
102
}
330
21E
100
AcDbProxyObject
 90
      499
 91
      503
 93
      113
310
90431303A310000000000000910100
  0
ACAD_PROXY_OBJECT
  5
22F
102
{ACAD_REACTORS
330
21E
102
}
330
21E
100
AcDbProxyObject
 90
      499
 91
      503
 93
      121
310
9053130303A310000000000001650100
  0
ACAD_PROXY_OBJECT
  5
230
102
{ACAD_REACTORS
330
21E
102
}
330
21E
100
AcDbProxyObject
 90
      499
 91
      503
 93
      257
310
90E312F31323822203D2031272D3022000000000000200FC000000000000284000
  0
ACAD_PROXY_OBJECT
  5
231
102
{ACAD_REACTORS
330
21E
102
}
330
21E
100
AcDbProxyObject
 90
      499
 91
      503
 93
      249
310
90D312F363422203D2031272D3022000000000000240FC000000000000284000
  0
ACAD_PROXY_OBJECT
  5
232
102
{ACAD_REACTORS
330
21E
102
}
330
21E
100
AcDbProxyObject
 90
      499
 91
      503
 93
      249
310
90D312F333222203D2031272D3022000000000000280FC000000000000284000
  0
ACAD_PROXY_OBJECT
  5
233
102
{ACAD_REACTORS
330
21E
102
}
330
21E
100
AcDbProxyObject
 90
      499
 91
      503
 93
      249
310
90D312F313622203D2031272D30220000000000002C0FC000000000000284000
  0
ACAD_PROXY_OBJECT
  5
234
102
{ACAD_REACTORS
330
21E
102
}
330
21E
100
AcDbProxyObject
 90
      499
 91
      503
 93
      249
310
90D332F333222203D2031272D30220000000000002E0FC000000000000284000
  0
ACAD_PROXY_OBJECT
  5
235
102
{ACAD_REACTORS
330
21E
102
}
330
21E
100
AcDbProxyObject
 90
      499
 91
      503
 93
      241
310
90C312F3822203D2031272D3022000000000000300FC000000000000284000
  0
ACAD_PROXY_OBJECT
  5
236
102
{ACAD_REACTORS
330
21E
102
}
330
21E
100
AcDbProxyObject
 90
      499
 91
      503
 93
      249
310
90D332F313622203D2031272D3022000000000000320FC000000000000284000
  0
ACAD_PROXY_OBJECT
  5
237
102
{ACAD_REACTORS
330
21E
102
}
330
21E
100
AcDbProxyObject
 90
      499
 91
      503
 93
      241
310
90C312F3422203D2031272D3022000000000000340FC000000000000284000
  0
ACAD_PROXY_OBJECT
  5
238
102
{ACAD_REACTORS
330
21E
102
}
330
21E
100
AcDbProxyObject
 90
      499
 91
      503
 93
      241
310
90C332F3822203D2031272D3022000000000000360FC000000000000284000
  0
ACAD_PROXY_OBJECT
  5
239
102
{ACAD_REACTORS
330
21E
102
}
330
21E
100
AcDbProxyObject
 90
      499
 91
      503
 93
      241
310
90C312F3222203D2031272D3022000000000000380FC000000000000284000
  0
ACAD_PROXY_OBJECT
  5
23A
102
{ACAD_REACTORS
330
21E
102
}
330
21E
100
AcDbProxyObject
 90
      499
 91
      503
 93
      241
310
90C332F3422203D2031272D30220000000000003A0FC000000000000284000
  0
ACAD_PROXY_OBJECT
  5
23B
102
{ACAD_REACTORS
330
21E
102
}
330
21E
100
AcDbProxyObject
 90
      499
 91
      503
 93
      161
310
90A3122203D2031272D30224000000000000284000
  0
ACAD_PROXY_OBJECT
  5
23C
102
{ACAD_REACTORS
330
21E
102
}
330
21E
100
AcDbProxyObject
 90
      499
 91
      503
 93
      257
310
90E312D312F3222203D2031272D30220000000000003E0FC000000000000284000
  0
ACAD_PROXY_OBJECT
  5
23D
102
{ACAD_REACTORS
330
21E
102
}
330
21E
100
AcDbProxyObject
 90
      499
 91
      503
 93
      225
310
90A3322203D2031272D302200000000000002100000000000000284000
  0
ACAD_PROXY_OBJECT
  5
23E
102
{ACAD_REACTORS
330
21E
102
}
330
21E
100
AcDbProxyObject
 90
      499
 91
      503
 93
      225
310
90A3622203D2031272D302200000000000006100000000000000284000
  0
ACAD_PROXY_OBJECT
  5
23F
102
{ACAD_REACTORS
330
21E
102
}
330
21E
100
AcDbProxyObject
 90
      499
 91
      503
 93
      249
310
90D31272D3022203D2031272D30220000000000000A100000000000000284000
  0
ACAD_PROXY_OBJECT
  5
2F
102
{ACAD_REACTORS
330
2A
102
}
330
2A
100
AcDbProxyObject
 90
      499
 91
      501
 93
      436
310
42CC9915DA5C99599C985B595049028333333333333E3BF0000000000000FB0107901411070040501600405405064090741402480A0340
1001
ACAD
1000
AcDbSavedByObjectVersion
1070
     0
  0
ACAD_PROXY_OBJECT
  5
31
102
{ACAD_REACTORS
330
2A
102
}
330
2A
100
AcDbProxyObject
 90
      499
 91
      501
 93
      500
310
424CD108121A5919195B90640502408333333333333E3BF0000000000000FB01079024090700405020000000000001110200405405064090740C02480A0340
1001
ACAD
1000
AcDbSavedByObjectVersion
1070
     0
  0
ACAD_PROXY_OBJECT
  5
30
102
{ACAD_REACTORS
330
2A
102
}
330
2A
100
AcDbProxyObject
 90
      499
 91
      501
 93
      436
310
42CCD915DA5C99599C985B595059028333333333333E3BF0000000000000FB0107901411070040501600405405064090741402480A0340
1001
ACAD
1000
AcDbSavedByObjectVersion
1070
     0
  0
ACAD_PROXY_OBJECT
  5
32
102
{ACAD_REACTORS
330
2A
102
}
330
2A
100
AcDbProxyObject
 90
      499
 91
      501
 93
      388
310
4150985CDA58D07406404333333333333E3BF0000000000000FB0107A41107004050150841D405064090741402480A0350
1001
ACAD
1000
AcDbSavedByObjectVersion
1070
     0
  0
ACAD_PROXY_OBJECT
  5
36
102
{ACAD_REACTORS
330
2A
102
}
330
2A
100
AcDbProxyObject
 90
      499
 91
      501
 93
      428
310
42109C9A59DA1D195B90C409028333333333333E3BF0000000000000FB010790141107004050150841D405064090741402480A029950
1001
ACAD
1000
AcDbSavedByObjectVersion
1070
     0
  0
ACAD_PROXY_OBJECT
  5
3A
102
{ACAD_REACTORS
330
2A
102
}
330
2A
100
AcDbProxyObject
 90
      499
 91
      501
 93
      452
310
42D0DBDB1BDC90DA185B99D95104090240C333333333333E3BF0000000000000FB0108901411070040501508421405064090741402480A0350
1001
ACAD
1000
AcDbSavedByObjectVersion
1070
     0
  0
ACAD_PROXY_OBJECT
  5
34
102
{ACAD_REACTORS
330
2A
102
}
330
2A
100
AcDbProxyObject
 90
      499
 91
      501
 93
      500
310
4290DBDB98D95C1D1D585B10940D028333333333333E3BF0000000000000FB0107902409070040501000000000000111010841D405064090740C02480A0340
1001
ACAD
1000
AcDbSavedByObjectVersion
1070
     0
  0
ACAD_PROXY_OBJECT
  5
35
102
{ACAD_REACTORS
330
2A
102
}
330
2A
100
AcDbProxyObject
 90
      499
 91
      501
 93
      412
310
40D11A5B50B409028333333333333E3BF0000000000000FB010790141107004050150841D405064090741402480A02677FFFFFD0
1001
ACAD
1000
AcDbSavedByObjectVersion
1070
     0
  0
ACAD_PROXY_OBJECT
  5
39
102
{ACAD_REACTORS
330
2A
102
}
330
2A
100
AcDbProxyObject
 90
      499
 91
      501
 93
      444
310
42D19858D95C185D1D195C9B90F409028333333333333E3BF0000000000000FB010790141107004050150841D405064090741402480A0350
1001
ACAD
1000
AcDbSavedByObjectVersion
1070
     0
  0
ACAD_PROXY_OBJECT
  5
2B
102
{ACAD_REACTORS
330
2A
102
}
330
2A
100
AcDbProxyObject
 90
      499
 91
      501
 93
      388
310
41119B185D240901404333333333333E3BF0000000000000F9010740A41107004050150841D405064090741402480A1B50
1001
ACAD
1000
AcDbSavedByObjectVersion
1070
     0
  0
ACAD_PROXY_OBJECT
  5
2C
102
{ACAD_REACTORS
330
2A
102
}
330
2A
100
AcDbProxyObject
 90
      499
 91
      501
 93
      476
310
43519B185D15DA5D1A115919D95CD0140901404333333333333E3BF0000000000000F9010740901411070040501600405405064090741402480A1B50
1001
ACAD
1000
AcDbSavedByObjectVersion
1070
     0
  0
ACAD_PROXY_OBJECT
  5
2D
102
{ACAD_REACTORS
330
2A
102
}
330
2A
100
AcDbProxyObject
 90
      499
 91
      501
 93
      412
310
41D1DBDD5C985D5910240902404333333333333E3BF0000000000000F9010740A411070040501641D405064090741402480A1B50
1001
ACAD
1000
AcDbSavedByObjectVersion
1070
     0
  0
ACAD_PROXY_OBJECT
  5
2E
102
{ACAD_REACTORS
330
2A
102
}
330
2A
100
AcDbProxyObject
 90
      499
 91
      501
 93
      500
310
4411DBDD5C985D5915DA5D1A115919D95CD0340902404333333333333E3BF0000000000000F9010740901411070040501600405405064090741402480A1B50
1001
ACAD
1000
AcDbSavedByObjectVersion
1070
     0
  0
ACAD_PROXY_OBJECT
  5
38
102
{ACAD_REACTORS
330
2A
102
}
330
2A
100
AcDbProxyObject
 90
      499
 91
      501
 93
      444
310
42D31A5B995C185D1D195C9B90E409028333333333333E3BF0000000000000FB010790141107004050750841D405064090741402483A0350
1001
ACAD
1000
AcDbSavedByObjectVersion
1070
     0
  0
ACAD_PROXY_OBJECT
  5
33
102
{ACAD_REACTORS
330
2A
102
}
330
2A
100
AcDbProxyObject
 90
      499
 91
      501
 93
      420
310
425499585B1A5CDD1A58D08409028333333333333E3BF0000000000000FB01079019070040501508421405064090741402480A1B40
1001
ACAD
1000
AcDbSavedByObjectVersion
1070
     0
  0
ACAD_PROXY_OBJECT
  5
37
102
{ACAD_REACTORS
330
2A
102
}
330
2A
100
AcDbProxyObject
 90
      499
 91
      501
 93
      412
310
41D51A1A58DAD95B90D409028333333333333E3BF0000000000000FB010790141107004050150C41D405064090741402480A0350
1001
ACAD
1000
AcDbSavedByObjectVersion
1070
     0
  0
XRECORD
  5
2A9
102
{ACAD_REACTORS
330
2A0
102
}
330
2A0
100
AcDbXrecord
 90
        0
  0
XRECORD
  5
2BF
102
{ACAD_REACTORS
330
2A0
102
}
330
2A0
100
AcDbXrecord
1000
DSTYLE
1002
{
1070
   340
340
11
1002
}
  0
XRECORD
  5
2AA
102
{ACAD_REACTORS
330
2A0
102
}
330
2A0
100
AcDbXrecord
  1
{FA09A6C1-2FCE-45E7-A02F-CC9FA6A091E1}
  0
XRECORD
  5
2A3
102
{ACAD_REACTORS
330
2A0
102
}
330
2A0
100
AcDbXrecord
  1

  0
XRECORD
  5
2A8
102
{ACAD_REACTORS
330
2A0
102
}
330
2A0
100
AcDbXrecord
 90
        1
  0
XRECORD
  5
2A5
102
{ACAD_REACTORS
330
2A0
102
}
330
2A0
100
AcDbXrecord
340
1A
  0
XRECORD
  5
2A7
102
{ACAD_REACTORS
330
2A0
102
}
330
2A0
100
AcDbXrecord
 90
    10781
  0
XRECORD
  5
2A6
102
{ACAD_REACTORS
330
2A0
102
}
330
2A0
100
AcDbXrecord
340
19
  0
XRECORD
  5
2AC
102
{ACAD_REACTORS
330
2A0
102
}
330
2A0
100
AcDbXrecord
 40
0.0
  0
XRECORD
  5
2AF
102
{ACAD_REACTORS
330
2A0
102
}
330
2A0
100
AcDbXrecord
340
0
  0
XRECORD
  5
2B5
102
{ACAD_REACTORS
330
2A0
102
}
330
2A0
100
AcDbXrecord
 10
0.0
 20
0.0
 30
0.0
  0
XRECORD
  5
2B1
102
{ACAD_REACTORS
330
2A0
102
}
330
2A0
100
AcDbXrecord
 10
0.0
 20
0.0
 30
0.0
  0
XRECORD
  5
2B4
102
{ACAD_REACTORS
330
2A0
102
}
330
2A0
100
AcDbXrecord
 10
0.0
 20
0.0
 30
0.0
  0
XRECORD
  5
2B2
102
{ACAD_REACTORS
330
2A0
102
}
330
2A0
100
AcDbXrecord
 10
0.0
 20
0.0
 30
0.0
  0
XRECORD
  5
2B3
102
{ACAD_REACTORS
330
2A0
102
}
330
2A0
100
AcDbXrecord
 10
0.0
 20
0.0
 30
0.0
  0
XRECORD
  5
2B0
102
{ACAD_REACTORS
330
2A0
102
}
330
2A0
100
AcDbXrecord
 10
0.0
 20
0.0
 30
0.0
  0
XRECORD
  5
2AD
102
{ACAD_REACTORS
330
2A0
102
}
330
2A0
100
AcDbXrecord
340
0
  0
XRECORD
  5
2AE
102
{ACAD_REACTORS
330
2A0
102
}
330
2A0
100
AcDbXrecord
 70
     0
  0
XRECORD
  5
2A4
102
{ACAD_REACTORS
330
2A0
102
}
330
2A0
100
AcDbXrecord
  1

  0
XRECORD
  5
2A1
102
{ACAD_REACTORS
330
2A0
102
}
330
2A0
100
AcDbXrecord
 90
        1
  0
XRECORD
  5
2A2
102
{ACAD_REACTORS
330
2A0
102
}
330
2A0
100
AcDbXrecord
 90
       70
  0
XRECORD
  5
2B8
102
{ACAD_REACTORS
330
2A0
102
}
330
2A0
100
AcDbXrecord
340
0
  0
XRECORD
  5
2BE
102
{ACAD_REACTORS
330
2A0
102
}
330
2A0
100
AcDbXrecord
 10
0.0
 20
0.0
 30
0.0
  0
XRECORD
  5
2BA
102
{ACAD_REACTORS
330
2A0
102
}
330
2A0
100
AcDbXrecord
 10
0.0
 20
0.0
 30
0.0
  0
XRECORD
  5
2BD
102
{ACAD_REACTORS
330
2A0
102
}
330
2A0
100
AcDbXrecord
 10
0.0
 20
0.0
 30
0.0
  0
XRECORD
  5
2BB
102
{ACAD_REACTORS
330
2A0
102
}
330
2A0
100
AcDbXrecord
 10
0.0
 20
0.0
 30
0.0
  0
XRECORD
  5
2BC
102
{ACAD_REACTORS
330
2A0
102
}
330
2A0
100
AcDbXrecord
 10
0.0
 20
0.0
 30
0.0
  0
XRECORD
  5
2B9
102
{ACAD_REACTORS
330
2A0
102
}
330
2A0
100
AcDbXrecord
 10
0.0
 20
0.0
 30
0.0
  0
XRECORD
  5
2B6
102
{ACAD_REACTORS
330
2A0
102
}
330
2A0
100
AcDbXrecord
340
0
  0
XRECORD
  5
2B7
102
{ACAD_REACTORS
330
2A0
102
}
330
2A0
100
AcDbXrecord
 70
     0
  0
XRECORD
  5
2AB
102
{ACAD_REACTORS
330
2A0
102
}
330
2A0
100
AcDbXrecord
  1
{FAEB1C32-E019-11D5-929B-00C0DF256EC4}
  0
DICTIONARYVAR
  5
2C3
102
{ACAD_REACTORS
330
2C0
102
}
330
2C0
100
DictionaryVariables
280
     0
  1
1:1
  0
DICTIONARYVAR
  5
2C4
102
{ACAD_REACTORS
330
2C0
102
}
330
2C0
100
DictionaryVariables
280
     0
  1
2
  0
DICTIONARYVAR
  5
2C5
102
{ACAD_REACTORS
330
2C0
102
}
330
2C0
100
DictionaryVariables
280
     0
  1
1
  0
DICTIONARY
  5
2C8
330
3D
100
AcDbDictionary
280
     1
  3
ACAD_XREC_ROUNDTRIP
360
2C9
  0
DICTIONARY
  5
2C6
330
3C
100
AcDbDictionary
280
     1
  3
ACAD_XREC_ROUNDTRIP
360
2C7
  0
DICTIONARY
  5
2CA
330
3E
100
AcDbDictionary
280
     1
  3
ACAD_XREC_ROUNDTRIP
360
2CB
  0
XRECORD
  5
2C9
102
{ACAD_REACTORS
330
2C8
102
}
330
2C8
100
AcDbXrecord
102
MATERIAL
148
0.0
149
0.0
149
0.0
 93
        0
 94
      127
282
     0
 72
     1
 77
     1
171
     1
175
     1
179
     1
273
     0
  0
XRECORD
  5
2C7
102
{ACAD_REACTORS
330
2C6
102
}
330
2C6
100
AcDbXrecord
102
MATERIAL
148
0.0
149
0.0
149
0.0
 93
        0
 94
      127
282
     0
 72
     1
 77
     1
171
     1
175
     1
179
     1
273
     0
  0
XRECORD
  5
2CB
102
{ACAD_REACTORS
330
2CA
102
}
330
2CA
100
AcDbXrecord
102
MATERIAL
148
0.0
149
0.0
149
0.0
 93
        0
 94
      127
282
     0
 72
     1
 77
     1
171
     1
175
     1
179
     1
273
     0
  0
ENDSEC
  0
EOF
