  0
SECTION
  2
HEADER
  9
$ACADVER
  1
AC1014
  9
$ACADMAINTVER
 70
     9
  9
$DWGCODEPAGE
  3
ANSI_1252
  9
$INSBASE
 10
0.0
 20
0.0
 30
0.0
  9
$EXTMIN
 10
1.000000000000000E+20
 20
1.000000000000000E+20
 30
1.000000000000000E+20
  9
$EXTMAX
 10
-1.000000000000000E+20
 20
-1.000000000000000E+20
 30
-1.000000000000000E+20
  9
$LIMMIN
 10
0.0
 20
0.0
  9
$LIMMAX
 10
12.0
 20
9.0
  9
$ORTHOMODE
 70
     0
  9
$REGENMODE
 70
     1
  9
$FILLMODE
 70
     1
  9
$QTEXTMODE
 70
     0
  9
$MIRRTEXT
 70
     1
  9
$DRAGMODE
 70
     2
  9
$LTSCALE
 40
1.0
  9
$OSMODE
 70
    37
  9
$ATTMODE
 70
     1
  9
$TEXTSIZE
 40
0.2
  9
$TRACEWID
 40
0.05
  9
$TEXTSTYLE
  7
STANDARD
  9
$CLAYER
  8
0
  9
$CELTYPE
  6
BYLAYER
  9
$CECOLOR
 62
   256
  9
$CELTSCALE
 40
1.0
  9
$DELOBJ
 70
     1
  9
$DISPSILH
 70
     0
  9
$DIMSCALE
 40
1.0
  9
$DIMASZ
 40
0.18
  9
$DIMEXO
 40
0.0625
  9
$DIMDLI
 40
0.38
  9
$DIMRND
 40
0.0
  9
$DIMDLE
 40
0.0
  9
$DIMEXE
 40
0.18
  9
$DIMTP
 40
0.0
  9
$DIMTM
 40
0.0
  9
$DIMTXT
 40
0.18
  9
$DIMCEN
 40
0.09
  9
$DIMTSZ
 40
0.0
  9
$DIMTOL
 70
     0
  9
$DIMLIM
 70
     0
  9
$DIMTIH
 70
     1
  9
$DIMTOH
 70
     1
  9
$DIMSE1
 70
     0
  9
$DIMSE2
 70
     0
  9
$DIMTAD
 70
     0
  9
$DIMZIN
 70
     0
  9
$DIMBLK
  1

  9
$DIMASO
 70
     1
  9
$DIMSHO
 70
     1
  9
$DIMPOST
  1

  9
$DIMAPOST
  1

  9
$DIMALT
 70
     0
  9
$DIMALTD
 70
     2
  9
$DIMALTF
 40
25.4
  9
$DIMLFAC
 40
1.0
  9
$DIMTOFL
 70
     0
  9
$DIMTVP
 40
0.0
  9
$DIMTIX
 70
     0
  9
$DIMSOXD
 70
     0
  9
$DIMSAH
 70
     0
  9
$DIMBLK1
  1

  9
$DIMBLK2
  1

  9
$DIMSTYLE
  2
STANDARD
  9
$DIMCLRD
 70
     0
  9
$DIMCLRE
 70
     0
  9
$DIMCLRT
 70
     0
  9
$DIMTFAC
 40
1.0
  9
$DIMGAP
 40
0.09
  9
$DIMJUST
 70
     0
  9
$DIMSD1
 70
     0
  9
$DIMSD2
 70
     0
  9
$DIMTOLJ
 70
     1
  9
$DIMTZIN
 70
     0
  9
$DIMALTZ
 70
     0
  9
$DIMALTTZ
 70
     0
  9
$DIMFIT
 70
     3
  9
$DIMUPT
 70
     0
  9
$DIMUNIT
 70
     2
  9
$DIMDEC
 70
     4
  9
$DIMTDEC
 70
     4
  9
$DIMALTU
 70
     2
  9
$DIMALTTD
 70
     2
  9
$DIMTXSTY
  7
STANDARD
  9
$DIMAUNIT
 70
     0
  9
$LUNITS
 70
     2
  9
$LUPREC
 70
     4
  9
$SKETCHINC
 40
0.1
  9
$FILLETRAD
 40
0.5
  9
$AUNITS
 70
     0
  9
$AUPREC
 70
     0
  9
$MENU
  1
.
  9
$ELEVATION
 40
0.0
  9
$PELEVATION
 40
0.0
  9
$THICKNESS
 40
0.0
  9
$LIMCHECK
 70
     0
  9
$CHAMFERA
 40
0.5
  9
$CHAMFERB
 40
0.5
  9
$CHAMFERC
 40
1.0
  9
$CHAMFERD
 40
0.0
  9
$SKPOLY
 70
     0
  9
$TDCREATE
 40
2455525.487167419
  9
$TDUPDATE
 40
2455525.487167431
  9
$TDINDWG
 40
0.0000000116
  9
$TDUSRTIMER
 40
0.0000000116
  9
$USRTIMER
 70
     1
  9
$ANGBASE
 50
0.0
  9
$ANGDIR
 70
     0
  9
$PDMODE
 70
     0
  9
$PDSIZE
 40
0.0
  9
$PLINEWID
 40
0.0
  9
$COORDS
 70
     1
  9
$SPLFRAME
 70
     0
  9
$SPLINETYPE
 70
     6
  9
$SPLINESEGS
 70
     8
  9
$ATTDIA
 70
     0
  9
$ATTREQ
 70
     1
  9
$HANDLING
 70
     1
  9
$HANDSEED
  5
7F9
  9
$SURFTAB1
 70
     6
  9
$SURFTAB2
 70
     6
  9
$SURFTYPE
 70
     6
  9
$SURFU
 70
     6
  9
$SURFV
 70
     6
  9
$UCSNAME
  2

  9
$UCSORG
 10
0.0
 20
0.0
 30
0.0
  9
$UCSXDIR
 10
1.0
 20
0.0
 30
0.0
  9
$UCSYDIR
 10
0.0
 20
1.0
 30
0.0
  9
$PUCSNAME
  2

  9
$PUCSORG
 10
0.0
 20
0.0
 30
0.0
  9
$PUCSXDIR
 10
1.0
 20
0.0
 30
0.0
  9
$PUCSYDIR
 10
0.0
 20
1.0
 30
0.0
  9
$USERI1
 70
     0
  9
$USERI2
 70
     0
  9
$USERI3
 70
     0
  9
$USERI4
 70
     0
  9
$USERI5
 70
     0
  9
$USERR1
 40
0.0
  9
$USERR2
 40
0.0
  9
$USERR3
 40
0.0
  9
$USERR4
 40
0.0
  9
$USERR5
 40
0.0
  9
$WORLDVIEW
 70
     1
  9
$SHADEDGE
 70
     3
  9
$SHADEDIF
 70
    70
  9
$TILEMODE
 70
     1
  9
$MAXACTVP
 70
    64
  9
$PINSBASE
 10
0.0
 20
0.0
 30
0.0
  9
$PLIMCHECK
 70
     0
  9
$PEXTMIN
 10
1.000000000000000E+20
 20
1.000000000000000E+20
 30
1.000000000000000E+20
  9
$PEXTMAX
 10
-1.000000000000000E+20
 20
-1.000000000000000E+20
 30
-1.000000000000000E+20
  9
$PLIMMIN
 10
0.0
 20
0.0
  9
$PLIMMAX
 10
12.0
 20
9.0
  9
$UNITMODE
 70
     0
  9
$VISRETAIN
 70
     1
  9
$PLINEGEN
 70
     0
  9
$PSLTSCALE
 70
     1
  9
$TREEDEPTH
 70
  3020
  9
$PICKSTYLE
 70
     1
  9
$CMLSTYLE
  2
STANDARD
  9
$CMLJUST
 70
     0
  9
$CMLSCALE
 40
1.0
  9
$PROXYGRAPHICS
 70
     1
  9
$MEASUREMENT
 70
     0
  0
ENDSEC
  0
SECTION
  2
CLASSES
  0
CLASS
  1
ACDBDICTIONARYWDFLT
  2
AcDbDictionaryWithDefault
  3
ObjectDBX Classes
 90
        0
280
     0
281
     0
  0
CLASS
  1
VISUALSTYLE
  2
AcDbVisualStyle
  3
ObjectDBX Classes
 90
     4095
280
     0
281
     0
  0
CLASS
  1
MATERIAL
  2
AcDbMaterial
  3
ObjectDBX Classes
 90
     1153
280
     0
281
     0
  0
CLASS
  1
SCALE
  2
AcDbScale
  3
ObjectDBX Classes
 90
     1153
280
     0
281
     0
  0
CLASS
  1
DICTIONARYVAR
  2
AcDbDictionaryVar
  3
ObjectDBX Classes
 90
        0
280
     0
281
     0
  0
CLASS
  1
XRECORD
  2
AcDbXrecord
  3
AutoCAD 2000
 90
        0
280
     0
281
     0
  0
CLASS
  1
LWPOLYLINE
  2
AcDbPolyline
  3
AutoCAD 2000
 90
        0
280
     0
281
     1
  0
CLASS
  1
HATCH
  2
AcDbHatch
  3
AutoCAD 2000
 90
        0
280
     0
281
     1
  0
CLASS
  1
ACDBPLACEHOLDER
  2
AcDbPlaceHolder
  3
ObjectDBX Classes
 90
        0
280
     0
281
     0
  0
CLASS
  1
LAYOUT
  2
AcDbLayout
  3
ObjectDBX Classes
 90
        0
280
     0
281
     0
  0
ENDSEC
  0
SECTION
  2
TABLES
  0
TABLE
  2
VPORT
  5
8
330
0
100
AcDbSymbolTable
 70
     1
  0
VPORT
  5
29
330
8
100
AcDbSymbolTableRecord
100
AcDbViewportTableRecord
  2
*ACTIVE
 70
     0
 10
0.0
 20
0.0
 11
1.0
 21
1.0
 12
0.0
 22
0.0
 13
0.0
 23
0.0
 14
0.5
 24
0.5
 15
0.5
 25
0.5
 16
-1.807152315974236
 26
1.807152271270752
 36
1.807152271270671
 17
2.0
 27
0.1875
 37
0.0000000000000806
 40
7.174777030944824
 41
0.1393771535598944
 42
50.0
 43
0.0
 44
0.0
 50
0.0
 51
240.0000004091463
 71
     0
 72
   100
 73
     1
 74
     3
 75
     0
 76
     0
 77
     0
 78
     0
  0
ENDTAB
  0
TABLE
  2
LTYPE
  5
5
330
0
100
AcDbSymbolTable
 70
     1
  0
LTYPE
  5
14
330
5
100
AcDbSymbolTableRecord
100
AcDbLinetypeTableRecord
  2
BYBLOCK
 70
     0
  3

 72
    65
 73
     0
 40
0.0
  0
LTYPE
  5
15
330
5
100
AcDbSymbolTableRecord
100
AcDbLinetypeTableRecord
  2
BYLAYER
 70
     0
  3

 72
    65
 73
     0
 40
0.0
  0
LTYPE
  5
16
330
5
100
AcDbSymbolTableRecord
100
AcDbLinetypeTableRecord
  2
CONTINUOUS
 70
     0
  3
Solid line
 72
    65
 73
     0
 40
0.0
  0
ENDTAB
  0
TABLE
  2
LAYER
  5
2
330
0
100
AcDbSymbolTable
 70
     1
  0
LAYER
  5
10
330
2
100
AcDbSymbolTableRecord
100
AcDbLayerTableRecord
  2
0
 70
     0
 62
     7
  6
CONTINUOUS
  0
ENDTAB
  0
TABLE
  2
STYLE
  5
3
330
0
100
AcDbSymbolTable
 70
     1
  0
STYLE
  5
11
330
3
100
AcDbSymbolTableRecord
100
AcDbTextStyleTableRecord
  2
STANDARD
 70
     0
 40
0.0
 41
1.0
 50
0.0
 71
     0
 42
0.2
  3
txt
  4

  0
ENDTAB
  0
TABLE
  2
VIEW
  5
6
330
0
100
AcDbSymbolTable
 70
     0
  0
ENDTAB
  0
TABLE
  2
UCS
  5
7
330
0
100
AcDbSymbolTable
 70
     0
  0
ENDTAB
  0
TABLE
  2
APPID
  5
9
330
0
100
AcDbSymbolTable
 70
     1
  0
APPID
  5
12
330
9
100
AcDbSymbolTableRecord
100
AcDbRegAppTableRecord
  2
ACAD
 70
     0
  0
ENDTAB
  0
TABLE
  2
DIMSTYLE
  5
A
330
0
100
AcDbSymbolTable
 70
     1
  0
DIMSTYLE
105
27
330
A
100
AcDbSymbolTableRecord
100
AcDbDimStyleTableRecord
  2
STANDARD
 70
     0
  3

  4

  5

  6

  7

 40
1.0
 41
0.18
 42
0.0625
 43
0.38
 44
0.18
 45
0.0
 46
0.0
 47
0.0
 48
0.0
140
0.18
141
0.09
142
0.0
143
25.4
144
1.0
145
0.0
146
1.0
147
0.09
 71
     0
 72
     0
 73
     1
 74
     1
 75
     0
 76
     0
 77
     0
 78
     0
170
     0
171
     2
172
     0
173
     0
174
     0
175
     0
176
     0
177
     0
178
     0
270
     2
271
     4
272
     4
273
     2
274
     2
340
11
275
     0
280
     0
281
     0
282
     0
283
     1
284
     0
285
     0
286
     0
287
     3
288
     0
  0
ENDTAB
  0
TABLE
  2
BLOCK_RECORD
  5
1
330
0
100
AcDbSymbolTable
 70
    43
  0
BLOCK_RECORD
  5
1F
330
1
100
AcDbSymbolTableRecord
100
AcDbBlockTableRecord
  2
*MODEL_SPACE
  0
BLOCK_RECORD
  5
1B
330
1
100
AcDbSymbolTableRecord
100
AcDbBlockTableRecord
  2
*PAPER_SPACE
  0
BLOCK_RECORD
  5
3F
330
1
100
AcDbSymbolTableRecord
100
AcDbBlockTableRecord
  2
_STYLE_LIBRARY__DWFW3D_PUB
  0
BLOCK_RECORD
  5
42
330
1
100
AcDbSymbolTableRecord
100
AcDbBlockTableRecord
  2
_INCLUDE_LIBRARY_47
  0
BLOCK_RECORD
  5
45
330
1
100
AcDbSymbolTableRecord
100
AcDbBlockTableRecord
  2
*U3
  0
BLOCK_RECORD
  5
189
330
1
100
AcDbSymbolTableRecord
100
AcDbBlockTableRecord
  2
*U4
  0
BLOCK_RECORD
  5
288
330
1
100
AcDbSymbolTableRecord
100
AcDbBlockTableRecord
  2
*U5
  0
BLOCK_RECORD
  5
64C
330
1
100
AcDbSymbolTableRecord
100
AcDbBlockTableRecord
  2
*U6
  0
BLOCK_RECORD
  5
71D
330
1
100
AcDbSymbolTableRecord
100
AcDbBlockTableRecord
  2
*U7
  0
BLOCK_RECORD
  5
721
330
1
100
AcDbSymbolTableRecord
100
AcDbBlockTableRecord
  2
53
  0
BLOCK_RECORD
  5
725
330
1
100
AcDbSymbolTableRecord
100
AcDbBlockTableRecord
  2
54
  0
BLOCK_RECORD
  5
729
330
1
100
AcDbSymbolTableRecord
100
AcDbBlockTableRecord
  2
55
  0
BLOCK_RECORD
  5
72D
330
1
100
AcDbSymbolTableRecord
100
AcDbBlockTableRecord
  2
56
  0
BLOCK_RECORD
  5
732
330
1
100
AcDbSymbolTableRecord
100
AcDbBlockTableRecord
  2
57
  0
BLOCK_RECORD
  5
737
330
1
100
AcDbSymbolTableRecord
100
AcDbBlockTableRecord
  2
58
  0
BLOCK_RECORD
  5
73C
330
1
100
AcDbSymbolTableRecord
100
AcDbBlockTableRecord
  2
59
  0
BLOCK_RECORD
  5
741
330
1
100
AcDbSymbolTableRecord
100
AcDbBlockTableRecord
  2
60
  0
BLOCK_RECORD
  5
746
330
1
100
AcDbSymbolTableRecord
100
AcDbBlockTableRecord
  2
61
  0
BLOCK_RECORD
  5
74B
330
1
100
AcDbSymbolTableRecord
100
AcDbBlockTableRecord
  2
62
  0
BLOCK_RECORD
  5
750
330
1
100
AcDbSymbolTableRecord
100
AcDbBlockTableRecord
  2
63
  0
BLOCK_RECORD
  5
755
330
1
100
AcDbSymbolTableRecord
100
AcDbBlockTableRecord
  2
64
  0
BLOCK_RECORD
  5
75A
330
1
100
AcDbSymbolTableRecord
100
AcDbBlockTableRecord
  2
65
  0
BLOCK_RECORD
  5
75F
330
1
100
AcDbSymbolTableRecord
100
AcDbBlockTableRecord
  2
66
  0
BLOCK_RECORD
  5
764
330
1
100
AcDbSymbolTableRecord
100
AcDbBlockTableRecord
  2
67
  0
BLOCK_RECORD
  5
769
330
1
100
AcDbSymbolTableRecord
100
AcDbBlockTableRecord
  2
68
  0
BLOCK_RECORD
  5
76E
330
1
100
AcDbSymbolTableRecord
100
AcDbBlockTableRecord
  2
69
  0
BLOCK_RECORD
  5
773
330
1
100
AcDbSymbolTableRecord
100
AcDbBlockTableRecord
  2
70
  0
BLOCK_RECORD
  5
778
330
1
100
AcDbSymbolTableRecord
100
AcDbBlockTableRecord
  2
71
  0
BLOCK_RECORD
  5
77D
330
1
100
AcDbSymbolTableRecord
100
AcDbBlockTableRecord
  2
72
  0
BLOCK_RECORD
  5
782
330
1
100
AcDbSymbolTableRecord
100
AcDbBlockTableRecord
  2
73
  0
BLOCK_RECORD
  5
787
330
1
100
AcDbSymbolTableRecord
100
AcDbBlockTableRecord
  2
74
  0
BLOCK_RECORD
  5
78C
330
1
100
AcDbSymbolTableRecord
100
AcDbBlockTableRecord
  2
75
  0
BLOCK_RECORD
  5
791
330
1
100
AcDbSymbolTableRecord
100
AcDbBlockTableRecord
  2
76
  0
BLOCK_RECORD
  5
796
330
1
100
AcDbSymbolTableRecord
100
AcDbBlockTableRecord
  2
77
  0
BLOCK_RECORD
  5
79B
330
1
100
AcDbSymbolTableRecord
100
AcDbBlockTableRecord
  2
78
  0
BLOCK_RECORD
  5
7A0
330
1
100
AcDbSymbolTableRecord
100
AcDbBlockTableRecord
  2
79
  0
BLOCK_RECORD
  5
7A5
330
1
100
AcDbSymbolTableRecord
100
AcDbBlockTableRecord
  2
80
  0
BLOCK_RECORD
  5
7AA
330
1
100
AcDbSymbolTableRecord
100
AcDbBlockTableRecord
  2
81
  0
BLOCK_RECORD
  5
7AF
330
1
100
AcDbSymbolTableRecord
100
AcDbBlockTableRecord
  2
82
  0
BLOCK_RECORD
  5
7B4
330
1
100
AcDbSymbolTableRecord
100
AcDbBlockTableRecord
  2
83
  0
BLOCK_RECORD
  5
7B9
330
1
100
AcDbSymbolTableRecord
100
AcDbBlockTableRecord
  2
84
  0
BLOCK_RECORD
  5
7BE
330
1
100
AcDbSymbolTableRecord
100
AcDbBlockTableRecord
  2
85
  0
BLOCK_RECORD
  5
7C3
330
1
100
AcDbSymbolTableRecord
100
AcDbBlockTableRecord
  2
86
  0
BLOCK_RECORD
  5
7C8
330
1
100
AcDbSymbolTableRecord
100
AcDbBlockTableRecord
  2
87
  0
ENDTAB
  0
ENDSEC
  0
SECTION
  2
BLOCKS
  0
BLOCK
  5
20
330
1F
100
AcDbEntity
  8
0
100
AcDbBlockBegin
  2
*MODEL_SPACE
 70
     0
 10
0.0
 20
0.0
 30
0.0
  3
*MODEL_SPACE
  1

  0
ENDBLK
  5
21
330
1F
100
AcDbEntity
  8
0
100
AcDbBlockEnd
  0
BLOCK
  5
1C
330
1B
100
AcDbEntity
 67
     1
  8
0
100
AcDbBlockBegin
  2
*PAPER_SPACE
 70
     0
 10
0.0
 20
0.0
 30
0.0
  3
*PAPER_SPACE
  1

  0
ENDBLK
  5
1D
330
1B
100
AcDbEntity
 67
     1
  8
0
100
AcDbBlockEnd
  0
BLOCK
  5
40
330
3F
100
AcDbEntity
  8
0
100
AcDbBlockBegin
  2
_STYLE_LIBRARY__DWFW3D_PUB
 70
     0
 10
0.0
 20
0.0
 30
0.0
  3
_STYLE_LIBRARY__DWFW3D_PUB
  1

  0
ENDBLK
  5
41
330
3F
100
AcDbEntity
  8
0
100
AcDbBlockEnd
  0
BLOCK
  5
43
330
42
100
AcDbEntity
  8
0
100
AcDbBlockBegin
  2
_INCLUDE_LIBRARY_47
 70
     0
 10
0.0
 20
0.0
 30
0.0
  3
_INCLUDE_LIBRARY_47
  1

  0
INSERT
  5
46
330
42
100
AcDbEntity
  8
0
100
AcDbBlockReference
  2
*U3
 10
0.0
 20
0.0
 30
0.0
  0
INSERT
  5
289
330
42
100
AcDbEntity
  8
0
100
AcDbBlockReference
  2
*U5
 10
0.0
 20
0.0
 30
0.0
  0
ENDBLK
  5
44
330
42
100
AcDbEntity
  8
0
100
AcDbBlockEnd
  0
BLOCK
  5
47
330
45
100
AcDbEntity
  8
0
100
AcDbBlockBegin
  2
*U3
 70
     1
 10
0.0
 20
0.0
 30
0.0
  3
*U3
  1

  0
POLYLINE
  5
49
330
45
100
AcDbEntity
  8
0
 62
     7
100
AcDbPolyFaceMesh
 66
     1
 10
0.0
 20
0.0
 30
0.0
 70
    64
 71
   178
 72
   140
  0
VERTEX
  5
4A
330
49
100
AcDbEntity
  8
0
 62
     7
100
AcDbVertex
100
AcDbPolyFaceMeshVertex
 10
-0.0520833320915699
 20
0.0104166669771075
 30
0.0104166669771075
 70
   192
  0
VERTEX
  5
4B
330
49
100
AcDbEntity
  8
0
 62
     7
100
AcDbVertex
100
AcDbPolyFaceMeshVertex
 10
-0.0520833320915699
 20
0.0104166669771075
 30
-0.0104166669771075
 70
   192
  0
VERTEX
  5
4C
330
49
100
AcDbEntity
  8
0
 62
     7
100
AcDbVertex
100
AcDbPolyFaceMeshVertex
 10
0.0520833320915699
 20
0.0104166669771075
 30
-0.0104166669771075
 70
   192
  0
VERTEX
  5
4D
330
49
100
AcDbEntity
  8
0
 62
     7
100
AcDbVertex
100
AcDbPolyFaceMeshVertex
 10
0.0520833320915699
 20
0.0104166669771075
 30
0.0104166669771075
 70
   192
  0
VERTEX
  5
4E
330
49
100
AcDbEntity
  8
0
 62
     7
100
AcDbVertex
100
AcDbPolyFaceMeshVertex
 10
-0.0833333358168602
 20
0.0104166669771075
 30
-0.015625
 70
   192
  0
VERTEX
  5
4F
330
49
100
AcDbEntity
  8
0
 62
     7
100
AcDbVertex
100
AcDbPolyFaceMeshVertex
 10
-0.045991912484169
 20
0.0104166669771075
 30
-0.015625
 70
   192
  0
VERTEX
  5
50
330
49
100
AcDbEntity
  8
0
 62
     7
100
AcDbVertex
100
AcDbPolyFaceMeshVertex
 10
-0.0408108755946159
 20
0.0104166669771075
 30
-0.0162795167416334
 70
   192
  0
VERTEX
  5
51
330
49
100
AcDbEntity
  8
0
 62
     7
100
AcDbVertex
100
AcDbPolyFaceMeshVertex
 10
-0.0359553769230843
 20
0.0104166669771075
 30
-0.0182019434869289
 70
   192
  0
VERTEX
  5
52
330
49
100
AcDbEntity
  8
0
 62
     7
100
AcDbVertex
100
AcDbPolyFaceMeshVertex
 10
0.0359553769230843
 20
0.0104166669771075
 30
-0.0182019434869289
 70
   192
  0
VERTEX
  5
53
330
49
100
AcDbEntity
  8
0
 62
     7
100
AcDbVertex
100
AcDbPolyFaceMeshVertex
 10
0.0408108755946159
 20
0.0104166669771075
 30
-0.0162795167416334
 70
   192
  0
VERTEX
  5
54
330
49
100
AcDbEntity
  8
0
 62
     7
100
AcDbVertex
100
AcDbPolyFaceMeshVertex
 10
0.045991912484169
 20
0.0104166669771075
 30
-0.015625
 70
   192
  0
VERTEX
  5
55
330
49
100
AcDbEntity
  8
0
 62
     7
100
AcDbVertex
100
AcDbPolyFaceMeshVertex
 10
0.0833333358168602
 20
0.0104166669771075
 30
-0.015625
 70
   192
  0
VERTEX
  5
56
330
49
100
AcDbEntity
  8
0
 62
     7
100
AcDbVertex
100
AcDbPolyFaceMeshVertex
 10
0.0833333358168602
 20
0.0104166669771075
 30
0.015625
 70
   192
  0
VERTEX
  5
57
330
49
100
AcDbEntity
  8
0
 62
     7
100
AcDbVertex
100
AcDbPolyFaceMeshVertex
 10
0.045991912484169
 20
0.0104166669771075
 30
0.015625
 70
   192
  0
VERTEX
  5
58
330
49
100
AcDbEntity
  8
0
 62
     7
100
AcDbVertex
100
AcDbPolyFaceMeshVertex
 10
0.0408108755946159
 20
0.0104166669771075
 30
0.0162795167416334
 70
   192
  0
VERTEX
  5
59
330
49
100
AcDbEntity
  8
0
 62
     7
100
AcDbVertex
100
AcDbPolyFaceMeshVertex
 10
0.0359553769230843
 20
0.0104166669771075
 30
0.0182019434869289
 70
   192
  0
VERTEX
  5
5A
330
49
100
AcDbEntity
  8
0
 62
     7
100
AcDbVertex
100
AcDbPolyFaceMeshVertex
 10
-0.0359553769230843
 20
0.0104166669771075
 30
0.0182019434869289
 70
   192
  0
VERTEX
  5
5B
330
49
100
AcDbEntity
  8
0
 62
     7
100
AcDbVertex
100
AcDbPolyFaceMeshVertex
 10
-0.0408108755946159
 20
0.0104166669771075
 30
0.0162795167416334
 70
   192
  0
VERTEX
  5
5C
330
49
100
AcDbEntity
  8
0
 62
     7
100
AcDbVertex
100
AcDbPolyFaceMeshVertex
 10
-0.045991912484169
 20
0.0104166669771075
 30
0.015625
 70
   192
  0
VERTEX
  5
5D
330
49
100
AcDbEntity
  8
0
 62
     7
100
AcDbVertex
100
AcDbPolyFaceMeshVertex
 10
-0.0833333358168602
 20
0.0104166669771075
 30
0.015625
 70
   192
  0
VERTEX
  5
5E
330
49
100
AcDbEntity
  8
0
 62
     7
100
AcDbVertex
100
AcDbPolyFaceMeshVertex
 10
-0.0317305140197277
 20
0.0104166669771075
 30
-0.0212714876979589
 70
   192
  0
VERTEX
  5
5F
330
49
100
AcDbEntity
  8
0
 62
     7
100
AcDbVertex
100
AcDbPolyFaceMeshVertex
 10
0.0317305140197277
 20
0.0104166669771075
 30
-0.0212714876979589
 70
   192
  0
VERTEX
  5
60
330
49
100
AcDbEntity
  8
0
 62
     7
100
AcDbVertex
100
AcDbPolyFaceMeshVertex
 10
0.0317305140197277
 20
0.0104166669771075
 30
0.0212714876979589
 70
   192
  0
VERTEX
  5
61
330
49
100
AcDbEntity
  8
0
 62
     7
100
AcDbVertex
100
AcDbPolyFaceMeshVertex
 10
-0.0317305140197277
 20
0.0104166669771075
 30
0.0212714876979589
 70
   192
  0
VERTEX
  5
62
330
49
100
AcDbEntity
  8
0
 62
     7
100
AcDbVertex
100
AcDbPolyFaceMeshVertex
 10
-0.0284017492085695
 20
0.0104166669771075
 30
0.0252952743321657
 70
   192
  0
VERTEX
  5
63
330
49
100
AcDbEntity
  8
0
 62
     7
100
AcDbVertex
100
AcDbPolyFaceMeshVertex
 10
-0.0261782351881266
 20
0.0104166669771075
 30
0.0300204791128635
 70
   192
  0
VERTEX
  5
64
330
49
100
AcDbEntity
  8
0
 62
     7
100
AcDbVertex
100
AcDbPolyFaceMeshVertex
 10
-0.015625
 20
0.0104166669771075
 30
0.0625
 70
   192
  0
VERTEX
  5
65
330
49
100
AcDbEntity
  8
0
 62
     7
100
AcDbVertex
100
AcDbPolyFaceMeshVertex
 10
0.015625
 20
0.0104166669771075
 30
0.0625
 70
   192
  0
VERTEX
  5
66
330
49
100
AcDbEntity
  8
0
 62
     7
100
AcDbVertex
100
AcDbPolyFaceMeshVertex
 10
0.0261782351881266
 20
0.0104166669771075
 30
0.0300204791128635
 70
   192
  0
VERTEX
  5
67
330
49
100
AcDbEntity
  8
0
 62
     7
100
AcDbVertex
100
AcDbPolyFaceMeshVertex
 10
0.0284017492085695
 20
0.0104166669771075
 30
0.0252952743321657
 70
   192
  0
VERTEX
  5
68
330
49
100
AcDbEntity
  8
0
 62
     7
100
AcDbVertex
100
AcDbPolyFaceMeshVertex
 10
0.0284017492085695
 20
0.0104166669771075
 30
-0.0252952743321657
 70
   192
  0
VERTEX
  5
69
330
49
100
AcDbEntity
  8
0
 62
     7
100
AcDbVertex
100
AcDbPolyFaceMeshVertex
 10
0.0261782351881266
 20
0.0104166669771075
 30
-0.0300204791128635
 70
   192
  0
VERTEX
  5
6A
330
49
100
AcDbEntity
  8
0
 62
     7
100
AcDbVertex
100
AcDbPolyFaceMeshVertex
 10
0.015625
 20
0.0104166669771075
 30
-0.0625
 70
   192
  0
VERTEX
  5
6B
330
49
100
AcDbEntity
  8
0
 62
     7
100
AcDbVertex
100
AcDbPolyFaceMeshVertex
 10
-0.015625
 20
0.0104166669771075
 30
-0.0625
 70
   192
  0
VERTEX
  5
6C
330
49
100
AcDbEntity
  8
0
 62
     7
100
AcDbVertex
100
AcDbPolyFaceMeshVertex
 10
-0.0261782351881266
 20
0.0104166669771075
 30
-0.0300204791128635
 70
   192
  0
VERTEX
  5
6D
330
49
100
AcDbEntity
  8
0
 62
     7
100
AcDbVertex
100
AcDbPolyFaceMeshVertex
 10
-0.0284017492085695
 20
0.0104166669771075
 30
-0.0252952743321657
 70
   192
  0
VERTEX
  5
6E
330
49
100
AcDbEntity
  8
0
 62
     7
100
AcDbVertex
100
AcDbPolyFaceMeshVertex
 10
-0.015625
 20
-0.0000000000000061
 30
0.0625
 70
   192
  0
VERTEX
  5
6F
330
49
100
AcDbEntity
  8
0
 62
     7
100
AcDbVertex
100
AcDbPolyFaceMeshVertex
 10
-0.0261782351881266
 20
-0.0000000000000061
 30
0.0300204791128635
 70
   192
  0
VERTEX
  5
70
330
49
100
AcDbEntity
  8
0
 62
     7
100
AcDbVertex
100
AcDbPolyFaceMeshVertex
 10
-0.0284017492085695
 20
-0.0000000000000061
 30
0.0252952743321657
 70
   192
  0
VERTEX
  5
71
330
49
100
AcDbEntity
  8
0
 62
     7
100
AcDbVertex
100
AcDbPolyFaceMeshVertex
 10
-0.0317305140197277
 20
-0.0000000000000061
 30
0.0212714876979589
 70
   192
  0
VERTEX
  5
72
330
49
100
AcDbEntity
  8
0
 62
     7
100
AcDbVertex
100
AcDbPolyFaceMeshVertex
 10
-0.0359553769230843
 20
-0.0000000000000061
 30
0.0182019434869289
 70
   192
  0
VERTEX
  5
73
330
49
100
AcDbEntity
  8
0
 62
     7
100
AcDbVertex
100
AcDbPolyFaceMeshVertex
 10
-0.0408108755946159
 20
-0.0000000000000061
 30
0.0162795167416334
 70
   192
  0
VERTEX
  5
74
330
49
100
AcDbEntity
  8
0
 62
     7
100
AcDbVertex
100
AcDbPolyFaceMeshVertex
 10
-0.045991912484169
 20
-0.0000000000000061
 30
0.015625
 70
   192
  0
VERTEX
  5
75
330
49
100
AcDbEntity
  8
0
 62
     7
100
AcDbVertex
100
AcDbPolyFaceMeshVertex
 10
-0.0833333358168602
 20
-0.0000000000000061
 30
0.015625
 70
   192
  0
VERTEX
  5
76
330
49
100
AcDbEntity
  8
0
 62
     7
100
AcDbVertex
100
AcDbPolyFaceMeshVertex
 10
-0.0833333358168602
 20
-0.0000000000000061
 30
-0.015625
 70
   192
  0
VERTEX
  5
77
330
49
100
AcDbEntity
  8
0
 62
     7
100
AcDbVertex
100
AcDbPolyFaceMeshVertex
 10
-0.045991912484169
 20
-0.0000000000000061
 30
-0.015625
 70
   192
  0
VERTEX
  5
78
330
49
100
AcDbEntity
  8
0
 62
     7
100
AcDbVertex
100
AcDbPolyFaceMeshVertex
 10
-0.0408108755946159
 20
-0.0000000000000061
 30
-0.0162795167416334
 70
   192
  0
VERTEX
  5
79
330
49
100
AcDbEntity
  8
0
 62
     7
100
AcDbVertex
100
AcDbPolyFaceMeshVertex
 10
-0.0359553769230843
 20
-0.0000000000000061
 30
-0.0182019434869289
 70
   192
  0
VERTEX
  5
7A
330
49
100
AcDbEntity
  8
0
 62
     7
100
AcDbVertex
100
AcDbPolyFaceMeshVertex
 10
-0.0317305140197277
 20
-0.0000000000000061
 30
-0.0212714876979589
 70
   192
  0
VERTEX
  5
7B
330
49
100
AcDbEntity
  8
0
 62
     7
100
AcDbVertex
100
AcDbPolyFaceMeshVertex
 10
-0.0284017492085695
 20
-0.0000000000000061
 30
-0.0252952743321657
 70
   192
  0
VERTEX
  5
7C
330
49
100
AcDbEntity
  8
0
 62
     7
100
AcDbVertex
100
AcDbPolyFaceMeshVertex
 10
-0.0261782351881266
 20
-0.0000000000000061
 30
-0.0300204791128635
 70
   192
  0
VERTEX
  5
7D
330
49
100
AcDbEntity
  8
0
 62
     7
100
AcDbVertex
100
AcDbPolyFaceMeshVertex
 10
-0.015625
 20
-0.0000000000000061
 30
-0.0625
 70
   192
  0
VERTEX
  5
7E
330
49
100
AcDbEntity
  8
0
 62
     7
100
AcDbVertex
100
AcDbPolyFaceMeshVertex
 10
0.015625
 20
-0.0000000000000061
 30
-0.0625
 70
   192
  0
VERTEX
  5
7F
330
49
100
AcDbEntity
  8
0
 62
     7
100
AcDbVertex
100
AcDbPolyFaceMeshVertex
 10
0.0261782351881266
 20
-0.0000000000000061
 30
-0.0300204791128635
 70
   192
  0
VERTEX
  5
80
330
49
100
AcDbEntity
  8
0
 62
     7
100
AcDbVertex
100
AcDbPolyFaceMeshVertex
 10
0.0284017492085695
 20
-0.0000000000000061
 30
-0.0252952743321657
 70
   192
  0
VERTEX
  5
81
330
49
100
AcDbEntity
  8
0
 62
     7
100
AcDbVertex
100
AcDbPolyFaceMeshVertex
 10
0.0317305140197277
 20
-0.0000000000000061
 30
-0.0212714876979589
 70
   192
  0
VERTEX
  5
82
330
49
100
AcDbEntity
  8
0
 62
     7
100
AcDbVertex
100
AcDbPolyFaceMeshVertex
 10
0.0359553769230843
 20
-0.0000000000000061
 30
-0.0182019434869289
 70
   192
  0
VERTEX
  5
83
330
49
100
AcDbEntity
  8
0
 62
     7
100
AcDbVertex
100
AcDbPolyFaceMeshVertex
 10
0.0408108755946159
 20
-0.0000000000000061
 30
-0.0162795167416334
 70
   192
  0
VERTEX
  5
84
330
49
100
AcDbEntity
  8
0
 62
     7
100
AcDbVertex
100
AcDbPolyFaceMeshVertex
 10
0.045991912484169
 20
-0.0000000000000061
 30
-0.015625
 70
   192
  0
VERTEX
  5
85
330
49
100
AcDbEntity
  8
0
 62
     7
100
AcDbVertex
100
AcDbPolyFaceMeshVertex
 10
0.0833333358168602
 20
-0.0000000000000061
 30
-0.015625
 70
   192
  0
VERTEX
  5
86
330
49
100
AcDbEntity
  8
0
 62
     7
100
AcDbVertex
100
AcDbPolyFaceMeshVertex
 10
0.0833333358168602
 20
-0.0000000000000061
 30
0.015625
 70
   192
  0
VERTEX
  5
87
330
49
100
AcDbEntity
  8
0
 62
     7
100
AcDbVertex
100
AcDbPolyFaceMeshVertex
 10
0.045991912484169
 20
-0.0000000000000061
 30
0.015625
 70
   192
  0
VERTEX
  5
88
330
49
100
AcDbEntity
  8
0
 62
     7
100
AcDbVertex
100
AcDbPolyFaceMeshVertex
 10
0.0408108755946159
 20
-0.0000000000000061
 30
0.0162795167416334
 70
   192
  0
VERTEX
  5
89
330
49
100
AcDbEntity
  8
0
 62
     7
100
AcDbVertex
100
AcDbPolyFaceMeshVertex
 10
0.0359553769230843
 20
-0.0000000000000061
 30
0.0182019434869289
 70
   192
  0
VERTEX
  5
8A
330
49
100
AcDbEntity
  8
0
 62
     7
100
AcDbVertex
100
AcDbPolyFaceMeshVertex
 10
0.0317305140197277
 20
-0.0000000000000061
 30
0.0212714876979589
 70
   192
  0
VERTEX
  5
8B
330
49
100
AcDbEntity
  8
0
 62
     7
100
AcDbVertex
100
AcDbPolyFaceMeshVertex
 10
0.0284017492085695
 20
-0.0000000000000061
 30
0.0252952743321657
 70
   192
  0
VERTEX
  5
8C
330
49
100
AcDbEntity
  8
0
 62
     7
100
AcDbVertex
100
AcDbPolyFaceMeshVertex
 10
0.0261782351881266
 20
-0.0000000000000061
 30
0.0300204791128635
 70
   192
  0
VERTEX
  5
8D
330
49
100
AcDbEntity
  8
0
 62
     7
100
AcDbVertex
100
AcDbPolyFaceMeshVertex
 10
0.015625
 20
-0.0000000000000061
 30
0.0625
 70
   192
  0
VERTEX
  5
8E
330
49
100
AcDbEntity
  8
0
 62
     7
100
AcDbVertex
100
AcDbPolyFaceMeshVertex
 10
0.0408108755946159
 20
0.0104166669771075
 30
-0.0162795167416334
 70
   192
  0
VERTEX
  5
8F
330
49
100
AcDbEntity
  8
0
 62
     7
100
AcDbVertex
100
AcDbPolyFaceMeshVertex
 10
0.045991912484169
 20
0.0104166669771075
 30
-0.015625
 70
   192
  0
VERTEX
  5
90
330
49
100
AcDbEntity
  8
0
 62
     7
100
AcDbVertex
100
AcDbPolyFaceMeshVertex
 10
0.045991912484169
 20
-0.0000000000000061
 30
-0.015625
 70
   192
  0
VERTEX
  5
91
330
49
100
AcDbEntity
  8
0
 62
     7
100
AcDbVertex
100
AcDbPolyFaceMeshVertex
 10
0.0408108755946159
 20
-0.0000000000000061
 30
-0.0162795167416334
 70
   192
  0
VERTEX
  5
92
330
49
100
AcDbEntity
  8
0
 62
     7
100
AcDbVertex
100
AcDbPolyFaceMeshVertex
 10
0.0359553769230843
 20
-0.0000000000000061
 30
-0.0182019434869289
 70
   192
  0
VERTEX
  5
93
330
49
100
AcDbEntity
  8
0
 62
     7
100
AcDbVertex
100
AcDbPolyFaceMeshVertex
 10
0.0317305140197277
 20
-0.0000000000000061
 30
-0.0212714876979589
 70
   192
  0
VERTEX
  5
94
330
49
100
AcDbEntity
  8
0
 62
     7
100
AcDbVertex
100
AcDbPolyFaceMeshVertex
 10
0.0284017492085695
 20
-0.0000000000000061
 30
-0.0252952743321657
 70
   192
  0
VERTEX
  5
95
330
49
100
AcDbEntity
  8
0
 62
     7
100
AcDbVertex
100
AcDbPolyFaceMeshVertex
 10
0.0261782351881266
 20
-0.0000000000000061
 30
-0.0300204791128635
 70
   192
  0
VERTEX
  5
96
330
49
100
AcDbEntity
  8
0
 62
     7
100
AcDbVertex
100
AcDbPolyFaceMeshVertex
 10
0.015625
 20
-0.0000000000000061
 30
-0.0625
 70
   192
  0
VERTEX
  5
97
330
49
100
AcDbEntity
  8
0
 62
     7
100
AcDbVertex
100
AcDbPolyFaceMeshVertex
 10
0.015625
 20
0.0104166669771075
 30
-0.0625
 70
   192
  0
VERTEX
  5
98
330
49
100
AcDbEntity
  8
0
 62
     7
100
AcDbVertex
100
AcDbPolyFaceMeshVertex
 10
0.0261782351881266
 20
0.0104166669771075
 30
-0.0300204791128635
 70
   192
  0
VERTEX
  5
99
330
49
100
AcDbEntity
  8
0
 62
     7
100
AcDbVertex
100
AcDbPolyFaceMeshVertex
 10
0.0284017492085695
 20
0.0104166669771075
 30
-0.0252952743321657
 70
   192
  0
VERTEX
  5
9A
330
49
100
AcDbEntity
  8
0
 62
     7
100
AcDbVertex
100
AcDbPolyFaceMeshVertex
 10
0.0317305140197277
 20
0.0104166669771075
 30
-0.0212714876979589
 70
   192
  0
VERTEX
  5
9B
330
49
100
AcDbEntity
  8
0
 62
     7
100
AcDbVertex
100
AcDbPolyFaceMeshVertex
 10
0.0359553769230843
 20
0.0104166669771075
 30
-0.0182019434869289
 70
   192
  0
VERTEX
  5
9C
330
49
100
AcDbEntity
  8
0
 62
     7
100
AcDbVertex
100
AcDbPolyFaceMeshVertex
 10
-0.015625
 20
0.0104166669771075
 30
-0.0625
 70
   192
  0
VERTEX
  5
9D
330
49
100
AcDbEntity
  8
0
 62
     7
100
AcDbVertex
100
AcDbPolyFaceMeshVertex
 10
0.015625
 20
0.0104166669771075
 30
-0.0625
 70
   192
  0
VERTEX
  5
9E
330
49
100
AcDbEntity
  8
0
 62
     7
100
AcDbVertex
100
AcDbPolyFaceMeshVertex
 10
0.015625
 20
-0.0000000000000061
 30
-0.0625
 70
   192
  0
VERTEX
  5
9F
330
49
100
AcDbEntity
  8
0
 62
     7
100
AcDbVertex
100
AcDbPolyFaceMeshVertex
 10
-0.015625
 20
-0.0000000000000061
 30
-0.0625
 70
   192
  0
VERTEX
  5
A0
330
49
100
AcDbEntity
  8
0
 62
     7
100
AcDbVertex
100
AcDbPolyFaceMeshVertex
 10
-0.0261782351881266
 20
0.0104166669771075
 30
-0.0300204791128635
 70
   192
  0
VERTEX
  5
A1
330
49
100
AcDbEntity
  8
0
 62
     7
100
AcDbVertex
100
AcDbPolyFaceMeshVertex
 10
-0.015625
 20
0.0104166669771075
 30
-0.0625
 70
   192
  0
VERTEX
  5
A2
330
49
100
AcDbEntity
  8
0
 62
     7
100
AcDbVertex
100
AcDbPolyFaceMeshVertex
 10
-0.015625
 20
-0.0000000000000061
 30
-0.0625
 70
   192
  0
VERTEX
  5
A3
330
49
100
AcDbEntity
  8
0
 62
     7
100
AcDbVertex
100
AcDbPolyFaceMeshVertex
 10
-0.0261782351881266
 20
-0.0000000000000061
 30
-0.0300204791128635
 70
   192
  0
VERTEX
  5
A4
330
49
100
AcDbEntity
  8
0
 62
     7
100
AcDbVertex
100
AcDbPolyFaceMeshVertex
 10
-0.0284017492085695
 20
0.0104166669771075
 30
-0.0252952743321657
 70
   192
  0
VERTEX
  5
A5
330
49
100
AcDbEntity
  8
0
 62
     7
100
AcDbVertex
100
AcDbPolyFaceMeshVertex
 10
-0.0261782351881266
 20
-0.0000000000000061
 30
-0.0300204791128635
 70
   192
  0
VERTEX
  5
A6
330
49
100
AcDbEntity
  8
0
 62
     7
100
AcDbVertex
100
AcDbPolyFaceMeshVertex
 10
-0.0284017492085695
 20
-0.0000000000000061
 30
-0.0252952743321657
 70
   192
  0
VERTEX
  5
A7
330
49
100
AcDbEntity
  8
0
 62
     7
100
AcDbVertex
100
AcDbPolyFaceMeshVertex
 10
-0.0317305140197277
 20
-0.0000000000000061
 30
-0.0212714876979589
 70
   192
  0
VERTEX
  5
A8
330
49
100
AcDbEntity
  8
0
 62
     7
100
AcDbVertex
100
AcDbPolyFaceMeshVertex
 10
-0.0359553769230843
 20
-0.0000000000000061
 30
-0.0182019434869289
 70
   192
  0
VERTEX
  5
A9
330
49
100
AcDbEntity
  8
0
 62
     7
100
AcDbVertex
100
AcDbPolyFaceMeshVertex
 10
-0.0408108755946159
 20
-0.0000000000000061
 30
-0.0162795167416334
 70
   192
  0
VERTEX
  5
AA
330
49
100
AcDbEntity
  8
0
 62
     7
100
AcDbVertex
100
AcDbPolyFaceMeshVertex
 10
-0.045991912484169
 20
-0.0000000000000061
 30
-0.015625
 70
   192
  0
VERTEX
  5
AB
330
49
100
AcDbEntity
  8
0
 62
     7
100
AcDbVertex
100
AcDbPolyFaceMeshVertex
 10
-0.045991912484169
 20
0.0104166669771075
 30
-0.015625
 70
   192
  0
VERTEX
  5
AC
330
49
100
AcDbEntity
  8
0
 62
     7
100
AcDbVertex
100
AcDbPolyFaceMeshVertex
 10
-0.0408108755946159
 20
0.0104166669771075
 30
-0.0162795167416334
 70
   192
  0
VERTEX
  5
AD
330
49
100
AcDbEntity
  8
0
 62
     7
100
AcDbVertex
100
AcDbPolyFaceMeshVertex
 10
-0.0359553769230843
 20
0.0104166669771075
 30
-0.0182019434869289
 70
   192
  0
VERTEX
  5
AE
330
49
100
AcDbEntity
  8
0
 62
     7
100
AcDbVertex
100
AcDbPolyFaceMeshVertex
 10
-0.0317305140197277
 20
0.0104166669771075
 30
-0.0212714876979589
 70
   192
  0
VERTEX
  5
AF
330
49
100
AcDbEntity
  8
0
 62
     7
100
AcDbVertex
100
AcDbPolyFaceMeshVertex
 10
-0.0833333358168602
 20
0.0104166669771075
 30
-0.015625
 70
   192
  0
VERTEX
  5
B0
330
49
100
AcDbEntity
  8
0
 62
     7
100
AcDbVertex
100
AcDbPolyFaceMeshVertex
 10
-0.045991912484169
 20
0.0104166669771075
 30
-0.015625
 70
   192
  0
VERTEX
  5
B1
330
49
100
AcDbEntity
  8
0
 62
     7
100
AcDbVertex
100
AcDbPolyFaceMeshVertex
 10
-0.045991912484169
 20
-0.0000000000000061
 30
-0.015625
 70
   192
  0
VERTEX
  5
B2
330
49
100
AcDbEntity
  8
0
 62
     7
100
AcDbVertex
100
AcDbPolyFaceMeshVertex
 10
-0.0833333358168602
 20
-0.0000000000000061
 30
-0.015625
 70
   192
  0
VERTEX
  5
B3
330
49
100
AcDbEntity
  8
0
 62
     7
100
AcDbVertex
100
AcDbPolyFaceMeshVertex
 10
-0.0833333358168602
 20
0.0104166669771075
 30
0.015625
 70
   192
  0
VERTEX
  5
B4
330
49
100
AcDbEntity
  8
0
 62
     7
100
AcDbVertex
100
AcDbPolyFaceMeshVertex
 10
-0.0833333358168602
 20
0.0104166669771075
 30
-0.015625
 70
   192
  0
VERTEX
  5
B5
330
49
100
AcDbEntity
  8
0
 62
     7
100
AcDbVertex
100
AcDbPolyFaceMeshVertex
 10
-0.0833333358168602
 20
-0.0000000000000061
 30
-0.015625
 70
   192
  0
VERTEX
  5
B6
330
49
100
AcDbEntity
  8
0
 62
     7
100
AcDbVertex
100
AcDbPolyFaceMeshVertex
 10
-0.0833333358168602
 20
-0.0000000000000061
 30
0.015625
 70
   192
  0
VERTEX
  5
B7
330
49
100
AcDbEntity
  8
0
 62
     7
100
AcDbVertex
100
AcDbPolyFaceMeshVertex
 10
-0.045991912484169
 20
0.0104166669771075
 30
0.015625
 70
   192
  0
VERTEX
  5
B8
330
49
100
AcDbEntity
  8
0
 62
     7
100
AcDbVertex
100
AcDbPolyFaceMeshVertex
 10
-0.0833333358168602
 20
0.0104166669771075
 30
0.015625
 70
   192
  0
VERTEX
  5
B9
330
49
100
AcDbEntity
  8
0
 62
     7
100
AcDbVertex
100
AcDbPolyFaceMeshVertex
 10
-0.0833333358168602
 20
-0.0000000000000061
 30
0.015625
 70
   192
  0
VERTEX
  5
BA
330
49
100
AcDbEntity
  8
0
 62
     7
100
AcDbVertex
100
AcDbPolyFaceMeshVertex
 10
-0.045991912484169
 20
-0.0000000000000061
 30
0.015625
 70
   192
  0
VERTEX
  5
BB
330
49
100
AcDbEntity
  8
0
 62
     7
100
AcDbVertex
100
AcDbPolyFaceMeshVertex
 10
-0.0408108755946159
 20
0.0104166669771075
 30
0.0162795167416334
 70
   192
  0
VERTEX
  5
BC
330
49
100
AcDbEntity
  8
0
 62
     7
100
AcDbVertex
100
AcDbPolyFaceMeshVertex
 10
-0.045991912484169
 20
0.0104166669771075
 30
0.015625
 70
   192
  0
VERTEX
  5
BD
330
49
100
AcDbEntity
  8
0
 62
     7
100
AcDbVertex
100
AcDbPolyFaceMeshVertex
 10
-0.045991912484169
 20
-0.0000000000000061
 30
0.015625
 70
   192
  0
VERTEX
  5
BE
330
49
100
AcDbEntity
  8
0
 62
     7
100
AcDbVertex
100
AcDbPolyFaceMeshVertex
 10
-0.0408108755946159
 20
-0.0000000000000061
 30
0.0162795167416334
 70
   192
  0
VERTEX
  5
BF
330
49
100
AcDbEntity
  8
0
 62
     7
100
AcDbVertex
100
AcDbPolyFaceMeshVertex
 10
-0.0359553769230843
 20
-0.0000000000000061
 30
0.0182019434869289
 70
   192
  0
VERTEX
  5
C0
330
49
100
AcDbEntity
  8
0
 62
     7
100
AcDbVertex
100
AcDbPolyFaceMeshVertex
 10
-0.0317305140197277
 20
-0.0000000000000061
 30
0.0212714876979589
 70
   192
  0
VERTEX
  5
C1
330
49
100
AcDbEntity
  8
0
 62
     7
100
AcDbVertex
100
AcDbPolyFaceMeshVertex
 10
-0.0284017492085695
 20
-0.0000000000000061
 30
0.0252952743321657
 70
   192
  0
VERTEX
  5
C2
330
49
100
AcDbEntity
  8
0
 62
     7
100
AcDbVertex
100
AcDbPolyFaceMeshVertex
 10
-0.0261782351881266
 20
-0.0000000000000061
 30
0.0300204791128635
 70
   192
  0
VERTEX
  5
C3
330
49
100
AcDbEntity
  8
0
 62
     7
100
AcDbVertex
100
AcDbPolyFaceMeshVertex
 10
-0.015625
 20
-0.0000000000000061
 30
0.0625
 70
   192
  0
VERTEX
  5
C4
330
49
100
AcDbEntity
  8
0
 62
     7
100
AcDbVertex
100
AcDbPolyFaceMeshVertex
 10
-0.015625
 20
0.0104166669771075
 30
0.0625
 70
   192
  0
VERTEX
  5
C5
330
49
100
AcDbEntity
  8
0
 62
     7
100
AcDbVertex
100
AcDbPolyFaceMeshVertex
 10
-0.0261782351881266
 20
0.0104166669771075
 30
0.0300204791128635
 70
   192
  0
VERTEX
  5
C6
330
49
100
AcDbEntity
  8
0
 62
     7
100
AcDbVertex
100
AcDbPolyFaceMeshVertex
 10
-0.0284017492085695
 20
0.0104166669771075
 30
0.0252952743321657
 70
   192
  0
VERTEX
  5
C7
330
49
100
AcDbEntity
  8
0
 62
     7
100
AcDbVertex
100
AcDbPolyFaceMeshVertex
 10
-0.0317305140197277
 20
0.0104166669771075
 30
0.0212714876979589
 70
   192
  0
VERTEX
  5
C8
330
49
100
AcDbEntity
  8
0
 62
     7
100
AcDbVertex
100
AcDbPolyFaceMeshVertex
 10
-0.0359553769230843
 20
0.0104166669771075
 30
0.0182019434869289
 70
   192
  0
VERTEX
  5
C9
330
49
100
AcDbEntity
  8
0
 62
     7
100
AcDbVertex
100
AcDbPolyFaceMeshVertex
 10
0.015625
 20
0.0104166669771075
 30
0.0625
 70
   192
  0
VERTEX
  5
CA
330
49
100
AcDbEntity
  8
0
 62
     7
100
AcDbVertex
100
AcDbPolyFaceMeshVertex
 10
-0.015625
 20
0.0104166669771075
 30
0.0625
 70
   192
  0
VERTEX
  5
CB
330
49
100
AcDbEntity
  8
0
 62
     7
100
AcDbVertex
100
AcDbPolyFaceMeshVertex
 10
-0.015625
 20
-0.0000000000000061
 30
0.0625
 70
   192
  0
VERTEX
  5
CC
330
49
100
AcDbEntity
  8
0
 62
     7
100
AcDbVertex
100
AcDbPolyFaceMeshVertex
 10
0.015625
 20
-0.0000000000000061
 30
0.0625
 70
   192
  0
VERTEX
  5
CD
330
49
100
AcDbEntity
  8
0
 62
     7
100
AcDbVertex
100
AcDbPolyFaceMeshVertex
 10
0.0261782351881266
 20
0.0104166669771075
 30
0.0300204791128635
 70
   192
  0
VERTEX
  5
CE
330
49
100
AcDbEntity
  8
0
 62
     7
100
AcDbVertex
100
AcDbPolyFaceMeshVertex
 10
0.015625
 20
0.0104166669771075
 30
0.0625
 70
   192
  0
VERTEX
  5
CF
330
49
100
AcDbEntity
  8
0
 62
     7
100
AcDbVertex
100
AcDbPolyFaceMeshVertex
 10
0.015625
 20
-0.0000000000000061
 30
0.0625
 70
   192
  0
VERTEX
  5
D0
330
49
100
AcDbEntity
  8
0
 62
     7
100
AcDbVertex
100
AcDbPolyFaceMeshVertex
 10
0.0261782351881266
 20
-0.0000000000000061
 30
0.0300204791128635
 70
   192
  0
VERTEX
  5
D1
330
49
100
AcDbEntity
  8
0
 62
     7
100
AcDbVertex
100
AcDbPolyFaceMeshVertex
 10
0.0284017492085695
 20
0.0104166669771075
 30
0.0252952743321657
 70
   192
  0
VERTEX
  5
D2
330
49
100
AcDbEntity
  8
0
 62
     7
100
AcDbVertex
100
AcDbPolyFaceMeshVertex
 10
0.0261782351881266
 20
-0.0000000000000061
 30
0.0300204791128635
 70
   192
  0
VERTEX
  5
D3
330
49
100
AcDbEntity
  8
0
 62
     7
100
AcDbVertex
100
AcDbPolyFaceMeshVertex
 10
0.0284017492085695
 20
-0.0000000000000061
 30
0.0252952743321657
 70
   192
  0
VERTEX
  5
D4
330
49
100
AcDbEntity
  8
0
 62
     7
100
AcDbVertex
100
AcDbPolyFaceMeshVertex
 10
0.0317305140197277
 20
-0.0000000000000061
 30
0.0212714876979589
 70
   192
  0
VERTEX
  5
D5
330
49
100
AcDbEntity
  8
0
 62
     7
100
AcDbVertex
100
AcDbPolyFaceMeshVertex
 10
0.0359553769230843
 20
-0.0000000000000061
 30
0.0182019434869289
 70
   192
  0
VERTEX
  5
D6
330
49
100
AcDbEntity
  8
0
 62
     7
100
AcDbVertex
100
AcDbPolyFaceMeshVertex
 10
0.0408108755946159
 20
-0.0000000000000061
 30
0.0162795167416334
 70
   192
  0
VERTEX
  5
D7
330
49
100
AcDbEntity
  8
0
 62
     7
100
AcDbVertex
100
AcDbPolyFaceMeshVertex
 10
0.045991912484169
 20
-0.0000000000000061
 30
0.015625
 70
   192
  0
VERTEX
  5
D8
330
49
100
AcDbEntity
  8
0
 62
     7
100
AcDbVertex
100
AcDbPolyFaceMeshVertex
 10
0.045991912484169
 20
0.0104166669771075
 30
0.015625
 70
   192
  0
VERTEX
  5
D9
330
49
100
AcDbEntity
  8
0
 62
     7
100
AcDbVertex
100
AcDbPolyFaceMeshVertex
 10
0.0408108755946159
 20
0.0104166669771075
 30
0.0162795167416334
 70
   192
  0
VERTEX
  5
DA
330
49
100
AcDbEntity
  8
0
 62
     7
100
AcDbVertex
100
AcDbPolyFaceMeshVertex
 10
0.0359553769230843
 20
0.0104166669771075
 30
0.0182019434869289
 70
   192
  0
VERTEX
  5
DB
330
49
100
AcDbEntity
  8
0
 62
     7
100
AcDbVertex
100
AcDbPolyFaceMeshVertex
 10
0.0317305140197277
 20
0.0104166669771075
 30
0.0212714876979589
 70
   192
  0
VERTEX
  5
DC
330
49
100
AcDbEntity
  8
0
 62
     7
100
AcDbVertex
100
AcDbPolyFaceMeshVertex
 10
0.0833333358168602
 20
0.0104166669771075
 30
0.015625
 70
   192
  0
VERTEX
  5
DD
330
49
100
AcDbEntity
  8
0
 62
     7
100
AcDbVertex
100
AcDbPolyFaceMeshVertex
 10
0.045991912484169
 20
0.0104166669771075
 30
0.015625
 70
   192
  0
VERTEX
  5
DE
330
49
100
AcDbEntity
  8
0
 62
     7
100
AcDbVertex
100
AcDbPolyFaceMeshVertex
 10
0.045991912484169
 20
-0.0000000000000061
 30
0.015625
 70
   192
  0
VERTEX
  5
DF
330
49
100
AcDbEntity
  8
0
 62
     7
100
AcDbVertex
100
AcDbPolyFaceMeshVertex
 10
0.0833333358168602
 20
-0.0000000000000061
 30
0.015625
 70
   192
  0
VERTEX
  5
E0
330
49
100
AcDbEntity
  8
0
 62
     7
100
AcDbVertex
100
AcDbPolyFaceMeshVertex
 10
0.0833333358168602
 20
0.0104166669771075
 30
-0.015625
 70
   192
  0
VERTEX
  5
E1
330
49
100
AcDbEntity
  8
0
 62
     7
100
AcDbVertex
100
AcDbPolyFaceMeshVertex
 10
0.0833333358168602
 20
0.0104166669771075
 30
0.015625
 70
   192
  0
VERTEX
  5
E2
330
49
100
AcDbEntity
  8
0
 62
     7
100
AcDbVertex
100
AcDbPolyFaceMeshVertex
 10
0.0833333358168602
 20
-0.0000000000000061
 30
0.015625
 70
   192
  0
VERTEX
  5
E3
330
49
100
AcDbEntity
  8
0
 62
     7
100
AcDbVertex
100
AcDbPolyFaceMeshVertex
 10
0.0833333358168602
 20
-0.0000000000000061
 30
-0.015625
 70
   192
  0
VERTEX
  5
E4
330
49
100
AcDbEntity
  8
0
 62
     7
100
AcDbVertex
100
AcDbPolyFaceMeshVertex
 10
0.045991912484169
 20
0.0104166669771075
 30
-0.015625
 70
   192
  0
VERTEX
  5
E5
330
49
100
AcDbEntity
  8
0
 62
     7
100
AcDbVertex
100
AcDbPolyFaceMeshVertex
 10
0.0833333358168602
 20
0.0104166669771075
 30
-0.015625
 70
   192
  0
VERTEX
  5
E6
330
49
100
AcDbEntity
  8
0
 62
     7
100
AcDbVertex
100
AcDbPolyFaceMeshVertex
 10
0.0833333358168602
 20
-0.0000000000000061
 30
-0.015625
 70
   192
  0
VERTEX
  5
E7
330
49
100
AcDbEntity
  8
0
 62
     7
100
AcDbVertex
100
AcDbPolyFaceMeshVertex
 10
0.045991912484169
 20
-0.0000000000000061
 30
-0.015625
 70
   192
  0
VERTEX
  5
E8
330
49
100
AcDbEntity
  8
0
 62
     7
100
AcDbVertex
100
AcDbPolyFaceMeshVertex
 10
0.0520833320915699
 20
0.03125
 30
-0.0104166669771075
 70
   192
  0
VERTEX
  5
E9
330
49
100
AcDbEntity
  8
0
 62
     7
100
AcDbVertex
100
AcDbPolyFaceMeshVertex
 10
-0.0520833320915699
 20
0.03125
 30
-0.0104166669771075
 70
   192
  0
VERTEX
  5
EA
330
49
100
AcDbEntity
  8
0
 62
     7
100
AcDbVertex
100
AcDbPolyFaceMeshVertex
 10
-0.0520833320915699
 20
0.03125
 30
0.0104166669771075
 70
   192
  0
VERTEX
  5
EB
330
49
100
AcDbEntity
  8
0
 62
     7
100
AcDbVertex
100
AcDbPolyFaceMeshVertex
 10
0.0520833320915699
 20
0.03125
 30
0.0104166669771075
 70
   192
  0
VERTEX
  5
EC
330
49
100
AcDbEntity
  8
0
 62
     7
100
AcDbVertex
100
AcDbPolyFaceMeshVertex
 10
-0.0520833320915699
 20
0.03125
 30
0.0104166669771075
 70
   192
  0
VERTEX
  5
ED
330
49
100
AcDbEntity
  8
0
 62
     7
100
AcDbVertex
100
AcDbPolyFaceMeshVertex
 10
-0.0520833320915699
 20
0.03125
 30
-0.0104166669771075
 70
   192
  0
VERTEX
  5
EE
330
49
100
AcDbEntity
  8
0
 62
     7
100
AcDbVertex
100
AcDbPolyFaceMeshVertex
 10
-0.0520833320915699
 20
0.0104166669771075
 30
-0.0104166669771075
 70
   192
  0
VERTEX
  5
EF
330
49
100
AcDbEntity
  8
0
 62
     7
100
AcDbVertex
100
AcDbPolyFaceMeshVertex
 10
-0.0520833320915699
 20
0.0104166669771075
 30
0.0104166669771075
 70
   192
  0
VERTEX
  5
F0
330
49
100
AcDbEntity
  8
0
 62
     7
100
AcDbVertex
100
AcDbPolyFaceMeshVertex
 10
0.0520833320915699
 20
0.03125
 30
0.0104166669771075
 70
   192
  0
VERTEX
  5
F1
330
49
100
AcDbEntity
  8
0
 62
     7
100
AcDbVertex
100
AcDbPolyFaceMeshVertex
 10
-0.0520833320915699
 20
0.03125
 30
0.0104166669771075
 70
   192
  0
VERTEX
  5
F2
330
49
100
AcDbEntity
  8
0
 62
     7
100
AcDbVertex
100
AcDbPolyFaceMeshVertex
 10
-0.0520833320915699
 20
0.0104166669771075
 30
0.0104166669771075
 70
   192
  0
VERTEX
  5
F3
330
49
100
AcDbEntity
  8
0
 62
     7
100
AcDbVertex
100
AcDbPolyFaceMeshVertex
 10
0.0520833320915699
 20
0.0104166669771075
 30
0.0104166669771075
 70
   192
  0
VERTEX
  5
F4
330
49
100
AcDbEntity
  8
0
 62
     7
100
AcDbVertex
100
AcDbPolyFaceMeshVertex
 10
0.0520833320915699
 20
0.03125
 30
-0.0104166669771075
 70
   192
  0
VERTEX
  5
F5
330
49
100
AcDbEntity
  8
0
 62
     7
100
AcDbVertex
100
AcDbPolyFaceMeshVertex
 10
0.0520833320915699
 20
0.03125
 30
0.0104166669771075
 70
   192
  0
VERTEX
  5
F6
330
49
100
AcDbEntity
  8
0
 62
     7
100
AcDbVertex
100
AcDbPolyFaceMeshVertex
 10
0.0520833320915699
 20
0.0104166669771075
 30
0.0104166669771075
 70
   192
  0
VERTEX
  5
F7
330
49
100
AcDbEntity
  8
0
 62
     7
100
AcDbVertex
100
AcDbPolyFaceMeshVertex
 10
0.0520833320915699
 20
0.0104166669771075
 30
-0.0104166669771075
 70
   192
  0
VERTEX
  5
F8
330
49
100
AcDbEntity
  8
0
 62
     7
100
AcDbVertex
100
AcDbPolyFaceMeshVertex
 10
-0.0520833320915699
 20
0.03125
 30
-0.0104166669771075
 70
   192
  0
VERTEX
  5
F9
330
49
100
AcDbEntity
  8
0
 62
     7
100
AcDbVertex
100
AcDbPolyFaceMeshVertex
 10
0.0520833320915699
 20
0.03125
 30
-0.0104166669771075
 70
   192
  0
VERTEX
  5
FA
330
49
100
AcDbEntity
  8
0
 62
     7
100
AcDbVertex
100
AcDbPolyFaceMeshVertex
 10
0.0520833320915699
 20
0.0104166669771075
 30
-0.0104166669771075
 70
   192
  0
VERTEX
  5
FB
330
49
100
AcDbEntity
  8
0
 62
     7
100
AcDbVertex
100
AcDbPolyFaceMeshVertex
 10
-0.0520833320915699
 20
0.0104166669771075
 30
-0.0104166669771075
 70
   192
  0
VERTEX
  5
FC
330
49
100
AcDbEntity
  8
0
 62
     7
100
AcDbFaceRecord
 10
0.0
 20
0.0
 30
0.0
 70
   128
 71
     1
 72
     2
 73
     5
  0
VERTEX
  5
FD
330
49
100
AcDbEntity
  8
0
 62
     7
100
AcDbFaceRecord
 10
0.0
 20
0.0
 30
0.0
 70
   128
 71
     5
 72
     2
 73
     6
  0
VERTEX
  5
FE
330
49
100
AcDbEntity
  8
0
 62
     7
100
AcDbFaceRecord
 10
0.0
 20
0.0
 30
0.0
 70
   128
 71
     6
 72
     2
 73
     7
  0
VERTEX
  5
FF
330
49
100
AcDbEntity
  8
0
 62
     7
100
AcDbFaceRecord
 10
0.0
 20
0.0
 30
0.0
 70
   128
 71
     7
 72
     2
 73
     8
  0
VERTEX
  5
100
330
49
100
AcDbEntity
  8
0
 62
     7
100
AcDbFaceRecord
 10
0.0
 20
0.0
 30
0.0
 70
   128
 71
     8
 72
     2
 73
     3
  0
VERTEX
  5
101
330
49
100
AcDbEntity
  8
0
 62
     7
100
AcDbFaceRecord
 10
0.0
 20
0.0
 30
0.0
 70
   128
 71
     8
 72
     3
 73
     9
  0
VERTEX
  5
102
330
49
100
AcDbEntity
  8
0
 62
     7
100
AcDbFaceRecord
 10
0.0
 20
0.0
 30
0.0
 70
   128
 71
     9
 72
     3
 73
    10
  0
VERTEX
  5
103
330
49
100
AcDbEntity
  8
0
 62
     7
100
AcDbFaceRecord
 10
0.0
 20
0.0
 30
0.0
 70
   128
 71
    10
 72
     3
 73
    11
  0
VERTEX
  5
104
330
49
100
AcDbEntity
  8
0
 62
     7
100
AcDbFaceRecord
 10
0.0
 20
0.0
 30
0.0
 70
   128
 71
    11
 72
     3
 73
    12
  0
VERTEX
  5
105
330
49
100
AcDbEntity
  8
0
 62
     7
100
AcDbFaceRecord
 10
0.0
 20
0.0
 30
0.0
 70
   128
 71
    12
 72
     3
 73
     4
  0
VERTEX
  5
106
330
49
100
AcDbEntity
  8
0
 62
     7
100
AcDbFaceRecord
 10
0.0
 20
0.0
 30
0.0
 70
   128
 71
    12
 72
     4
 73
    13
  0
VERTEX
  5
107
330
49
100
AcDbEntity
  8
0
 62
     7
100
AcDbFaceRecord
 10
0.0
 20
0.0
 30
0.0
 70
   128
 71
    13
 72
     4
 73
    14
  0
VERTEX
  5
108
330
49
100
AcDbEntity
  8
0
 62
     7
100
AcDbFaceRecord
 10
0.0
 20
0.0
 30
0.0
 70
   128
 71
    14
 72
     4
 73
    15
  0
VERTEX
  5
109
330
49
100
AcDbEntity
  8
0
 62
     7
100
AcDbFaceRecord
 10
0.0
 20
0.0
 30
0.0
 70
   128
 71
    15
 72
     4
 73
    16
  0
VERTEX
  5
10A
330
49
100
AcDbEntity
  8
0
 62
     7
100
AcDbFaceRecord
 10
0.0
 20
0.0
 30
0.0
 70
   128
 71
    16
 72
     4
 73
    17
  0
VERTEX
  5
10B
330
49
100
AcDbEntity
  8
0
 62
     7
100
AcDbFaceRecord
 10
0.0
 20
0.0
 30
0.0
 70
   128
 71
    17
 72
     4
 73
     1
  0
VERTEX
  5
10C
330
49
100
AcDbEntity
  8
0
 62
     7
100
AcDbFaceRecord
 10
0.0
 20
0.0
 30
0.0
 70
   128
 71
    17
 72
     1
 73
    18
  0
VERTEX
  5
10D
330
49
100
AcDbEntity
  8
0
 62
     7
100
AcDbFaceRecord
 10
0.0
 20
0.0
 30
0.0
 70
   128
 71
    18
 72
     1
 73
    19
  0
VERTEX
  5
10E
330
49
100
AcDbEntity
  8
0
 62
     7
100
AcDbFaceRecord
 10
0.0
 20
0.0
 30
0.0
 70
   128
 71
    19
 72
     1
 73
    20
  0
VERTEX
  5
10F
330
49
100
AcDbEntity
  8
0
 62
     7
100
AcDbFaceRecord
 10
0.0
 20
0.0
 30
0.0
 70
   128
 71
    20
 72
     1
 73
     5
  0
VERTEX
  5
110
330
49
100
AcDbEntity
  8
0
 62
     7
100
AcDbFaceRecord
 10
0.0
 20
0.0
 30
0.0
 70
   128
 71
    21
 72
     8
 73
     9
  0
VERTEX
  5
111
330
49
100
AcDbEntity
  8
0
 62
     7
100
AcDbFaceRecord
 10
0.0
 20
0.0
 30
0.0
 70
   128
 71
    21
 72
     9
 73
    22
  0
VERTEX
  5
112
330
49
100
AcDbEntity
  8
0
 62
     7
100
AcDbFaceRecord
 10
0.0
 20
0.0
 30
0.0
 70
   128
 71
    23
 72
    16
 73
    24
  0
VERTEX
  5
113
330
49
100
AcDbEntity
  8
0
 62
     7
100
AcDbFaceRecord
 10
0.0
 20
0.0
 30
0.0
 70
   128
 71
    24
 72
    16
 73
    17
  0
VERTEX
  5
114
330
49
100
AcDbEntity
  8
0
 62
     7
100
AcDbFaceRecord
 10
0.0
 20
0.0
 30
0.0
 70
   128
 71
    30
 72
    23
 73
    25
  0
VERTEX
  5
115
330
49
100
AcDbEntity
  8
0
 62
     7
100
AcDbFaceRecord
 10
0.0
 20
0.0
 30
0.0
 70
   128
 71
    25
 72
    23
 73
    24
  0
VERTEX
  5
116
330
49
100
AcDbEntity
  8
0
 62
     7
100
AcDbFaceRecord
 10
0.0
 20
0.0
 30
0.0
 70
   128
 71
    30
 72
    25
 73
    29
  0
VERTEX
  5
117
330
49
100
AcDbEntity
  8
0
 62
     7
100
AcDbFaceRecord
 10
0.0
 20
0.0
 30
0.0
 70
   128
 71
    29
 72
    25
 73
    26
  0
VERTEX
  5
118
330
49
100
AcDbEntity
  8
0
 62
     7
100
AcDbFaceRecord
 10
0.0
 20
0.0
 30
0.0
 70
   128
 71
    29
 72
    26
 73
    27
  0
VERTEX
  5
119
330
49
100
AcDbEntity
  8
0
 62
     7
100
AcDbFaceRecord
 10
0.0
 20
0.0
 30
0.0
 70
   128
 71
    29
 72
    27
 73
    28
  0
VERTEX
  5
11A
330
49
100
AcDbEntity
  8
0
 62
     7
100
AcDbFaceRecord
 10
0.0
 20
0.0
 30
0.0
 70
   128
 71
    36
 72
    21
 73
    22
  0
VERTEX
  5
11B
330
49
100
AcDbEntity
  8
0
 62
     7
100
AcDbFaceRecord
 10
0.0
 20
0.0
 30
0.0
 70
   128
 71
    36
 72
    22
 73
    31
  0
VERTEX
  5
11C
330
49
100
AcDbEntity
  8
0
 62
     7
100
AcDbFaceRecord
 10
0.0
 20
0.0
 30
0.0
 70
   128
 71
    36
 72
    31
 73
    32
  0
VERTEX
  5
11D
330
49
100
AcDbEntity
  8
0
 62
     7
100
AcDbFaceRecord
 10
0.0
 20
0.0
 30
0.0
 70
   128
 71
    36
 72
    32
 73
    35
  0
VERTEX
  5
11E
330
49
100
AcDbEntity
  8
0
 62
     7
100
AcDbFaceRecord
 10
0.0
 20
0.0
 30
0.0
 70
   128
 71
    35
 72
    32
 73
    34
  0
VERTEX
  5
11F
330
49
100
AcDbEntity
  8
0
 62
     7
100
AcDbFaceRecord
 10
0.0
 20
0.0
 30
0.0
 70
   128
 71
    34
 72
    32
 73
    33
  0
VERTEX
  5
120
330
49
100
AcDbEntity
  8
0
 62
     7
100
AcDbFaceRecord
 10
0.0
 20
0.0
 30
0.0
 70
   128
 71
    37
 72
    38
 73
    67
  0
VERTEX
  5
121
330
49
100
AcDbEntity
  8
0
 62
     7
100
AcDbFaceRecord
 10
0.0
 20
0.0
 30
0.0
 70
   128
 71
    67
 72
    38
 73
    39
  0
VERTEX
  5
122
330
49
100
AcDbEntity
  8
0
 62
     7
100
AcDbFaceRecord
 10
0.0
 20
0.0
 30
0.0
 70
   128
 71
    67
 72
    39
 73
    66
  0
VERTEX
  5
123
330
49
100
AcDbEntity
  8
0
 62
     7
100
AcDbFaceRecord
 10
0.0
 20
0.0
 30
0.0
 70
   128
 71
    66
 72
    39
 73
    55
  0
VERTEX
  5
124
330
49
100
AcDbEntity
  8
0
 62
     7
100
AcDbFaceRecord
 10
0.0
 20
0.0
 30
0.0
 70
   128
 71
    55
 72
    39
 73
    50
  0
VERTEX
  5
125
330
49
100
AcDbEntity
  8
0
 62
     7
100
AcDbFaceRecord
 10
0.0
 20
0.0
 30
0.0
 70
   128
 71
    50
 72
    39
 73
    49
  0
VERTEX
  5
126
330
49
100
AcDbEntity
  8
0
 62
     7
100
AcDbFaceRecord
 10
0.0
 20
0.0
 30
0.0
 70
   128
 71
    49
 72
    39
 73
    40
  0
VERTEX
  5
127
330
49
100
AcDbEntity
  8
0
 62
     7
100
AcDbFaceRecord
 10
0.0
 20
0.0
 30
0.0
 70
   128
 71
    49
 72
    40
 73
    41
  0
VERTEX
  5
128
330
49
100
AcDbEntity
  8
0
 62
     7
100
AcDbFaceRecord
 10
0.0
 20
0.0
 30
0.0
 70
   128
 71
    49
 72
    41
 73
    48
  0
VERTEX
  5
129
330
49
100
AcDbEntity
  8
0
 62
     7
100
AcDbFaceRecord
 10
0.0
 20
0.0
 30
0.0
 70
   128
 71
    48
 72
    41
 73
    42
  0
VERTEX
  5
12A
330
49
100
AcDbEntity
  8
0
 62
     7
100
AcDbFaceRecord
 10
0.0
 20
0.0
 30
0.0
 70
   128
 71
    48
 72
    42
 73
    47
  0
VERTEX
  5
12B
330
49
100
AcDbEntity
  8
0
 62
     7
100
AcDbFaceRecord
 10
0.0
 20
0.0
 30
0.0
 70
   128
 71
    47
 72
    42
 73
    43
  0
VERTEX
  5
12C
330
49
100
AcDbEntity
  8
0
 62
     7
100
AcDbFaceRecord
 10
0.0
 20
0.0
 30
0.0
 70
   128
 71
    47
 72
    43
 73
    46
  0
VERTEX
  5
12D
330
49
100
AcDbEntity
  8
0
 62
     7
100
AcDbFaceRecord
 10
0.0
 20
0.0
 30
0.0
 70
   128
 71
    46
 72
    43
 73
    44
  0
VERTEX
  5
12E
330
49
100
AcDbEntity
  8
0
 62
     7
100
AcDbFaceRecord
 10
0.0
 20
0.0
 30
0.0
 70
   128
 71
    46
 72
    44
 73
    45
  0
VERTEX
  5
12F
330
49
100
AcDbEntity
  8
0
 62
     7
100
AcDbFaceRecord
 10
0.0
 20
0.0
 30
0.0
 70
   128
 71
    55
 72
    50
 73
    54
  0
VERTEX
  5
130
330
49
100
AcDbEntity
  8
0
 62
     7
100
AcDbFaceRecord
 10
0.0
 20
0.0
 30
0.0
 70
   128
 71
    54
 72
    50
 73
    51
  0
VERTEX
  5
131
330
49
100
AcDbEntity
  8
0
 62
     7
100
AcDbFaceRecord
 10
0.0
 20
0.0
 30
0.0
 70
   128
 71
    54
 72
    51
 73
    52
  0
VERTEX
  5
132
330
49
100
AcDbEntity
  8
0
 62
     7
100
AcDbFaceRecord
 10
0.0
 20
0.0
 30
0.0
 70
   128
 71
    54
 72
    52
 73
    53
  0
VERTEX
  5
133
330
49
100
AcDbEntity
  8
0
 62
     7
100
AcDbFaceRecord
 10
0.0
 20
0.0
 30
0.0
 70
   128
 71
    66
 72
    55
 73
    56
  0
VERTEX
  5
134
330
49
100
AcDbEntity
  8
0
 62
     7
100
AcDbFaceRecord
 10
0.0
 20
0.0
 30
0.0
 70
   128
 71
    66
 72
    56
 73
    65
  0
VERTEX
  5
135
330
49
100
AcDbEntity
  8
0
 62
     7
100
AcDbFaceRecord
 10
0.0
 20
0.0
 30
0.0
 70
   128
 71
    65
 72
    56
 73
    64
  0
VERTEX
  5
136
330
49
100
AcDbEntity
  8
0
 62
     7
100
AcDbFaceRecord
 10
0.0
 20
0.0
 30
0.0
 70
   128
 71
    64
 72
    56
 73
    57
  0
VERTEX
  5
137
330
49
100
AcDbEntity
  8
0
 62
     7
100
AcDbFaceRecord
 10
0.0
 20
0.0
 30
0.0
 70
   128
 71
    64
 72
    57
 73
    63
  0
VERTEX
  5
138
330
49
100
AcDbEntity
  8
0
 62
     7
100
AcDbFaceRecord
 10
0.0
 20
0.0
 30
0.0
 70
   128
 71
    63
 72
    57
 73
    58
  0
VERTEX
  5
139
330
49
100
AcDbEntity
  8
0
 62
     7
100
AcDbFaceRecord
 10
0.0
 20
0.0
 30
0.0
 70
   128
 71
    63
 72
    58
 73
    62
  0
VERTEX
  5
13A
330
49
100
AcDbEntity
  8
0
 62
     7
100
AcDbFaceRecord
 10
0.0
 20
0.0
 30
0.0
 70
   128
 71
    62
 72
    58
 73
    59
  0
VERTEX
  5
13B
330
49
100
AcDbEntity
  8
0
 62
     7
100
AcDbFaceRecord
 10
0.0
 20
0.0
 30
0.0
 70
   128
 71
    62
 72
    59
 73
    61
  0
VERTEX
  5
13C
330
49
100
AcDbEntity
  8
0
 62
     7
100
AcDbFaceRecord
 10
0.0
 20
0.0
 30
0.0
 70
   128
 71
    61
 72
    59
 73
    60
  0
VERTEX
  5
13D
330
49
100
AcDbEntity
  8
0
 62
     7
100
AcDbFaceRecord
 10
0.0
 20
0.0
 30
0.0
 70
   128
 71
    37
 72
    67
 73
    68
  0
VERTEX
  5
13E
330
49
100
AcDbEntity
  8
0
 62
     7
100
AcDbFaceRecord
 10
0.0
 20
0.0
 30
0.0
 70
   128
 71
    69
 72
    70
 73
    71
  0
VERTEX
  5
13F
330
49
100
AcDbEntity
  8
0
 62
     7
100
AcDbFaceRecord
 10
0.0
 20
0.0
 30
0.0
 70
   128
 71
    69
 72
    71
 73
    72
  0
VERTEX
  5
140
330
49
100
AcDbEntity
  8
0
 62
     7
100
AcDbFaceRecord
 10
0.0
 20
0.0
 30
0.0
 70
   128
 71
    69
 72
    72
 73
    82
  0
VERTEX
  5
141
330
49
100
AcDbEntity
  8
0
 62
     7
100
AcDbFaceRecord
 10
0.0
 20
0.0
 30
0.0
 70
   128
 71
    82
 72
    72
 73
    73
  0
VERTEX
  5
142
330
49
100
AcDbEntity
  8
0
 62
     7
100
AcDbFaceRecord
 10
0.0
 20
0.0
 30
0.0
 70
   128
 71
    82
 72
    73
 73
    81
  0
VERTEX
  5
143
330
49
100
AcDbEntity
  8
0
 62
     7
100
AcDbFaceRecord
 10
0.0
 20
0.0
 30
0.0
 70
   128
 71
    81
 72
    73
 73
    74
  0
VERTEX
  5
144
330
49
100
AcDbEntity
  8
0
 62
     7
100
AcDbFaceRecord
 10
0.0
 20
0.0
 30
0.0
 70
   128
 71
    81
 72
    74
 73
    80
  0
VERTEX
  5
145
330
49
100
AcDbEntity
  8
0
 62
     7
100
AcDbFaceRecord
 10
0.0
 20
0.0
 30
0.0
 70
   128
 71
    80
 72
    74
 73
    75
  0
VERTEX
  5
146
330
49
100
AcDbEntity
  8
0
 62
     7
100
AcDbFaceRecord
 10
0.0
 20
0.0
 30
0.0
 70
   128
 71
    80
 72
    75
 73
    79
  0
VERTEX
  5
147
330
49
100
AcDbEntity
  8
0
 62
     7
100
AcDbFaceRecord
 10
0.0
 20
0.0
 30
0.0
 70
   128
 71
    79
 72
    75
 73
    76
  0
VERTEX
  5
148
330
49
100
AcDbEntity
  8
0
 62
     7
100
AcDbFaceRecord
 10
0.0
 20
0.0
 30
0.0
 70
   128
 71
    79
 72
    76
 73
    78
  0
VERTEX
  5
149
330
49
100
AcDbEntity
  8
0
 62
     7
100
AcDbFaceRecord
 10
0.0
 20
0.0
 30
0.0
 70
   128
 71
    78
 72
    76
 73
    77
  0
VERTEX
  5
14A
330
49
100
AcDbEntity
  8
0
 62
     7
100
AcDbFaceRecord
 10
0.0
 20
0.0
 30
0.0
 70
   128
 71
    83
 72
    84
 73
    85
  0
VERTEX
  5
14B
330
49
100
AcDbEntity
  8
0
 62
     7
100
AcDbFaceRecord
 10
0.0
 20
0.0
 30
0.0
 70
   128
 71
    83
 72
    85
 73
    86
  0
VERTEX
  5
14C
330
49
100
AcDbEntity
  8
0
 62
     7
100
AcDbFaceRecord
 10
0.0
 20
0.0
 30
0.0
 70
   128
 71
    87
 72
    88
 73
    90
  0
VERTEX
  5
14D
330
49
100
AcDbEntity
  8
0
 62
     7
100
AcDbFaceRecord
 10
0.0
 20
0.0
 30
0.0
 70
   128
 71
    90
 72
    88
 73
    89
  0
VERTEX
  5
14E
330
49
100
AcDbEntity
  8
0
 62
     7
100
AcDbFaceRecord
 10
0.0
 20
0.0
 30
0.0
 70
   128
 71
    91
 72
    87
 73
    92
  0
VERTEX
  5
14F
330
49
100
AcDbEntity
  8
0
 62
     7
100
AcDbFaceRecord
 10
0.0
 20
0.0
 30
0.0
 70
   128
 71
    91
 72
    92
 73
    93
  0
VERTEX
  5
150
330
49
100
AcDbEntity
  8
0
 62
     7
100
AcDbFaceRecord
 10
0.0
 20
0.0
 30
0.0
 70
   128
 71
    91
 72
    93
 73
   101
  0
VERTEX
  5
151
330
49
100
AcDbEntity
  8
0
 62
     7
100
AcDbFaceRecord
 10
0.0
 20
0.0
 30
0.0
 70
   128
 71
   101
 72
    93
 73
    94
  0
VERTEX
  5
152
330
49
100
AcDbEntity
  8
0
 62
     7
100
AcDbFaceRecord
 10
0.0
 20
0.0
 30
0.0
 70
   128
 71
   101
 72
    94
 73
   100
  0
VERTEX
  5
153
330
49
100
AcDbEntity
  8
0
 62
     7
100
AcDbFaceRecord
 10
0.0
 20
0.0
 30
0.0
 70
   128
 71
   100
 72
    94
 73
    95
  0
VERTEX
  5
154
330
49
100
AcDbEntity
  8
0
 62
     7
100
AcDbFaceRecord
 10
0.0
 20
0.0
 30
0.0
 70
   128
 71
   100
 72
    95
 73
    99
  0
VERTEX
  5
155
330
49
100
AcDbEntity
  8
0
 62
     7
100
AcDbFaceRecord
 10
0.0
 20
0.0
 30
0.0
 70
   128
 71
    99
 72
    95
 73
    96
  0
VERTEX
  5
156
330
49
100
AcDbEntity
  8
0
 62
     7
100
AcDbFaceRecord
 10
0.0
 20
0.0
 30
0.0
 70
   128
 71
    99
 72
    96
 73
    98
  0
VERTEX
  5
157
330
49
100
AcDbEntity
  8
0
 62
     7
100
AcDbFaceRecord
 10
0.0
 20
0.0
 30
0.0
 70
   128
 71
    98
 72
    96
 73
    97
  0
VERTEX
  5
158
330
49
100
AcDbEntity
  8
0
 62
     7
100
AcDbFaceRecord
 10
0.0
 20
0.0
 30
0.0
 70
   128
 71
   102
 72
   103
 73
   104
  0
VERTEX
  5
159
330
49
100
AcDbEntity
  8
0
 62
     7
100
AcDbFaceRecord
 10
0.0
 20
0.0
 30
0.0
 70
   128
 71
   102
 72
   104
 73
   105
  0
VERTEX
  5
15A
330
49
100
AcDbEntity
  8
0
 62
     7
100
AcDbFaceRecord
 10
0.0
 20
0.0
 30
0.0
 70
   128
 71
   106
 72
   107
 73
   108
  0
VERTEX
  5
15B
330
49
100
AcDbEntity
  8
0
 62
     7
100
AcDbFaceRecord
 10
0.0
 20
0.0
 30
0.0
 70
   128
 71
   106
 72
   108
 73
   109
  0
VERTEX
  5
15C
330
49
100
AcDbEntity
  8
0
 62
     7
100
AcDbFaceRecord
 10
0.0
 20
0.0
 30
0.0
 70
   128
 71
   110
 72
   111
 73
   113
  0
VERTEX
  5
15D
330
49
100
AcDbEntity
  8
0
 62
     7
100
AcDbFaceRecord
 10
0.0
 20
0.0
 30
0.0
 70
   128
 71
   113
 72
   111
 73
   112
  0
VERTEX
  5
15E
330
49
100
AcDbEntity
  8
0
 62
     7
100
AcDbFaceRecord
 10
0.0
 20
0.0
 30
0.0
 70
   128
 71
   114
 72
   115
 73
   116
  0
VERTEX
  5
15F
330
49
100
AcDbEntity
  8
0
 62
     7
100
AcDbFaceRecord
 10
0.0
 20
0.0
 30
0.0
 70
   128
 71
   114
 72
   116
 73
   117
  0
VERTEX
  5
160
330
49
100
AcDbEntity
  8
0
 62
     7
100
AcDbFaceRecord
 10
0.0
 20
0.0
 30
0.0
 70
   128
 71
   114
 72
   117
 73
   127
  0
VERTEX
  5
161
330
49
100
AcDbEntity
  8
0
 62
     7
100
AcDbFaceRecord
 10
0.0
 20
0.0
 30
0.0
 70
   128
 71
   127
 72
   117
 73
   118
  0
VERTEX
  5
162
330
49
100
AcDbEntity
  8
0
 62
     7
100
AcDbFaceRecord
 10
0.0
 20
0.0
 30
0.0
 70
   128
 71
   127
 72
   118
 73
   126
  0
VERTEX
  5
163
330
49
100
AcDbEntity
  8
0
 62
     7
100
AcDbFaceRecord
 10
0.0
 20
0.0
 30
0.0
 70
   128
 71
   126
 72
   118
 73
   119
  0
VERTEX
  5
164
330
49
100
AcDbEntity
  8
0
 62
     7
100
AcDbFaceRecord
 10
0.0
 20
0.0
 30
0.0
 70
   128
 71
   126
 72
   119
 73
   125
  0
VERTEX
  5
165
330
49
100
AcDbEntity
  8
0
 62
     7
100
AcDbFaceRecord
 10
0.0
 20
0.0
 30
0.0
 70
   128
 71
   125
 72
   119
 73
   120
  0
VERTEX
  5
166
330
49
100
AcDbEntity
  8
0
 62
     7
100
AcDbFaceRecord
 10
0.0
 20
0.0
 30
0.0
 70
   128
 71
   125
 72
   120
 73
   124
  0
VERTEX
  5
167
330
49
100
AcDbEntity
  8
0
 62
     7
100
AcDbFaceRecord
 10
0.0
 20
0.0
 30
0.0
 70
   128
 71
   124
 72
   120
 73
   121
  0
VERTEX
  5
168
330
49
100
AcDbEntity
  8
0
 62
     7
100
AcDbFaceRecord
 10
0.0
 20
0.0
 30
0.0
 70
   128
 71
   124
 72
   121
 73
   123
  0
VERTEX
  5
169
330
49
100
AcDbEntity
  8
0
 62
     7
100
AcDbFaceRecord
 10
0.0
 20
0.0
 30
0.0
 70
   128
 71
   123
 72
   121
 73
   122
  0
VERTEX
  5
16A
330
49
100
AcDbEntity
  8
0
 62
     7
100
AcDbFaceRecord
 10
0.0
 20
0.0
 30
0.0
 70
   128
 71
   128
 72
   129
 73
   130
  0
VERTEX
  5
16B
330
49
100
AcDbEntity
  8
0
 62
     7
100
AcDbFaceRecord
 10
0.0
 20
0.0
 30
0.0
 70
   128
 71
   128
 72
   130
 73
   131
  0
VERTEX
  5
16C
330
49
100
AcDbEntity
  8
0
 62
     7
100
AcDbFaceRecord
 10
0.0
 20
0.0
 30
0.0
 70
   128
 71
   132
 72
   133
 73
   135
  0
VERTEX
  5
16D
330
49
100
AcDbEntity
  8
0
 62
     7
100
AcDbFaceRecord
 10
0.0
 20
0.0
 30
0.0
 70
   128
 71
   135
 72
   133
 73
   134
  0
VERTEX
  5
16E
330
49
100
AcDbEntity
  8
0
 62
     7
100
AcDbFaceRecord
 10
0.0
 20
0.0
 30
0.0
 70
   128
 71
   136
 72
   132
 73
   137
  0
VERTEX
  5
16F
330
49
100
AcDbEntity
  8
0
 62
     7
100
AcDbFaceRecord
 10
0.0
 20
0.0
 30
0.0
 70
   128
 71
   136
 72
   137
 73
   138
  0
VERTEX
  5
170
330
49
100
AcDbEntity
  8
0
 62
     7
100
AcDbFaceRecord
 10
0.0
 20
0.0
 30
0.0
 70
   128
 71
   136
 72
   138
 73
   146
  0
VERTEX
  5
171
330
49
100
AcDbEntity
  8
0
 62
     7
100
AcDbFaceRecord
 10
0.0
 20
0.0
 30
0.0
 70
   128
 71
   146
 72
   138
 73
   139
  0
VERTEX
  5
172
330
49
100
AcDbEntity
  8
0
 62
     7
100
AcDbFaceRecord
 10
0.0
 20
0.0
 30
0.0
 70
   128
 71
   146
 72
   139
 73
   145
  0
VERTEX
  5
173
330
49
100
AcDbEntity
  8
0
 62
     7
100
AcDbFaceRecord
 10
0.0
 20
0.0
 30
0.0
 70
   128
 71
   145
 72
   139
 73
   140
  0
VERTEX
  5
174
330
49
100
AcDbEntity
  8
0
 62
     7
100
AcDbFaceRecord
 10
0.0
 20
0.0
 30
0.0
 70
   128
 71
   145
 72
   140
 73
   144
  0
VERTEX
  5
175
330
49
100
AcDbEntity
  8
0
 62
     7
100
AcDbFaceRecord
 10
0.0
 20
0.0
 30
0.0
 70
   128
 71
   144
 72
   140
 73
   141
  0
VERTEX
  5
176
330
49
100
AcDbEntity
  8
0
 62
     7
100
AcDbFaceRecord
 10
0.0
 20
0.0
 30
0.0
 70
   128
 71
   144
 72
   141
 73
   143
  0
VERTEX
  5
177
330
49
100
AcDbEntity
  8
0
 62
     7
100
AcDbFaceRecord
 10
0.0
 20
0.0
 30
0.0
 70
   128
 71
   143
 72
   141
 73
   142
  0
VERTEX
  5
178
330
49
100
AcDbEntity
  8
0
 62
     7
100
AcDbFaceRecord
 10
0.0
 20
0.0
 30
0.0
 70
   128
 71
   147
 72
   148
 73
   149
  0
VERTEX
  5
179
330
49
100
AcDbEntity
  8
0
 62
     7
100
AcDbFaceRecord
 10
0.0
 20
0.0
 30
0.0
 70
   128
 71
   147
 72
   149
 73
   150
  0
VERTEX
  5
17A
330
49
100
AcDbEntity
  8
0
 62
     7
100
AcDbFaceRecord
 10
0.0
 20
0.0
 30
0.0
 70
   128
 71
   151
 72
   152
 73
   153
  0
VERTEX
  5
17B
330
49
100
AcDbEntity
  8
0
 62
     7
100
AcDbFaceRecord
 10
0.0
 20
0.0
 30
0.0
 70
   128
 71
   151
 72
   153
 73
   154
  0
VERTEX
  5
17C
330
49
100
AcDbEntity
  8
0
 62
     7
100
AcDbFaceRecord
 10
0.0
 20
0.0
 30
0.0
 70
   128
 71
   155
 72
   156
 73
   157
  0
VERTEX
  5
17D
330
49
100
AcDbEntity
  8
0
 62
     7
100
AcDbFaceRecord
 10
0.0
 20
0.0
 30
0.0
 70
   128
 71
   155
 72
   157
 73
   158
  0
VERTEX
  5
17E
330
49
100
AcDbEntity
  8
0
 62
     7
100
AcDbFaceRecord
 10
0.0
 20
0.0
 30
0.0
 70
   128
 71
   159
 72
   160
 73
   161
  0
VERTEX
  5
17F
330
49
100
AcDbEntity
  8
0
 62
     7
100
AcDbFaceRecord
 10
0.0
 20
0.0
 30
0.0
 70
   128
 71
   159
 72
   161
 73
   162
  0
VERTEX
  5
180
330
49
100
AcDbEntity
  8
0
 62
     7
100
AcDbFaceRecord
 10
0.0
 20
0.0
 30
0.0
 70
   128
 71
   163
 72
   164
 73
   166
  0
VERTEX
  5
181
330
49
100
AcDbEntity
  8
0
 62
     7
100
AcDbFaceRecord
 10
0.0
 20
0.0
 30
0.0
 70
   128
 71
   166
 72
   164
 73
   165
  0
VERTEX
  5
182
330
49
100
AcDbEntity
  8
0
 62
     7
100
AcDbFaceRecord
 10
0.0
 20
0.0
 30
0.0
 70
   128
 71
   167
 72
   168
 73
   169
  0
VERTEX
  5
183
330
49
100
AcDbEntity
  8
0
 62
     7
100
AcDbFaceRecord
 10
0.0
 20
0.0
 30
0.0
 70
   128
 71
   167
 72
   169
 73
   170
  0
VERTEX
  5
184
330
49
100
AcDbEntity
  8
0
 62
     7
100
AcDbFaceRecord
 10
0.0
 20
0.0
 30
0.0
 70
   128
 71
   171
 72
   172
 73
   174
  0
VERTEX
  5
185
330
49
100
AcDbEntity
  8
0
 62
     7
100
AcDbFaceRecord
 10
0.0
 20
0.0
 30
0.0
 70
   128
 71
   174
 72
   172
 73
   173
  0
VERTEX
  5
186
330
49
100
AcDbEntity
  8
0
 62
     7
100
AcDbFaceRecord
 10
0.0
 20
0.0
 30
0.0
 70
   128
 71
   175
 72
   176
 73
   177
  0
VERTEX
  5
187
330
49
100
AcDbEntity
  8
0
 62
     7
100
AcDbFaceRecord
 10
0.0
 20
0.0
 30
0.0
 70
   128
 71
   175
 72
   177
 73
   178
  0
SEQEND
  5
188
330
49
100
AcDbEntity
  8
0
 62
     7
  0
INSERT
  5
18A
330
45
100
AcDbEntity
  8
0
100
AcDbBlockReference
  2
*U4
 10
0.0
 20
0.0
 30
0.0
  0
ENDBLK
  5
48
330
45
100
AcDbEntity
  8
0
100
AcDbBlockEnd
  0
BLOCK
  5
18B
330
189
100
AcDbEntity
  8
0
100
AcDbBlockBegin
  2
*U4
 70
     1
 10
0.0
 20
0.0
 30
0.0
  3
*U4
  1

  0
INSERT
  5
18D
330
189
100
AcDbEntity
  8
0
100
AcDbBlockReference
  2
_STYLE_LIBRARY__DWFW3D_PUB
 10
0.0
 20
0.0
 30
0.0
  0
ARC
  5
1B0
330
189
100
AcDbEntity
  8
0
 62
    18
100
AcDbCircle
 10
-0.0459919161060839
 20
-0.036458338220453
 30
0.0104166669771075
 40
0.0208333382204533
210
0.0
220
1.0
230
0.0
100
AcDbArc
 50
18.00001025958592
 51
89.99999003902133
  0
POLYLINE
  5
1B1
330
189
100
AcDbEntity
  8
0
 62
    18
100
AcDb3dPolyline
 66
     1
 10
0.0
 20
0.0
 30
0.0
 70
     8
  0
VERTEX
  5
1B2
330
1B1
100
AcDbEntity
  8
0
 62
    18
100
AcDbVertex
100
AcDb3dPolylineVertex
 10
0.0261782351881266
 20
0.0104166669771075
 30
-0.0300204791128635
 70
    32
  0
VERTEX
  5
1B3
330
1B1
100
AcDbEntity
  8
0
 62
    18
100
AcDbVertex
100
AcDb3dPolylineVertex
 10
0.015625
 20
0.0104166669771075
 30
-0.0625
 70
    32
  0
SEQEND
  5
1B4
330
1B1
100
AcDbEntity
  8
0
 62
    18
  0
POLYLINE
  5
1B5
330
189
100
AcDbEntity
  8
0
 62
    18
100
AcDb3dPolyline
 66
     1
 10
0.0
 20
0.0
 30
0.0
 70
     8
  0
VERTEX
  5
1B6
330
1B5
100
AcDbEntity
  8
0
 62
    18
100
AcDbVertex
100
AcDb3dPolylineVertex
 10
0.015625
 20
0.0104166669771075
 30
-0.0625
 70
    32
  0
VERTEX
  5
1B7
330
1B5
100
AcDbEntity
  8
0
 62
    18
100
AcDbVertex
100
AcDb3dPolylineVertex
 10
-0.015625
 20
0.0104166669771075
 30
-0.0625
 70
    32
  0
SEQEND
  5
1B8
330
1B5
100
AcDbEntity
  8
0
 62
    18
  0
POLYLINE
  5
1B9
330
189
100
AcDbEntity
  8
0
 62
    18
100
AcDb3dPolyline
 66
     1
 10
0.0
 20
0.0
 30
0.0
 70
     8
  0
VERTEX
  5
1BA
330
1B9
100
AcDbEntity
  8
0
 62
    18
100
AcDbVertex
100
AcDb3dPolylineVertex
 10
-0.015625
 20
0.0104166669771075
 30
-0.0625
 70
    32
  0
VERTEX
  5
1BB
330
1B9
100
AcDbEntity
  8
0
 62
    18
100
AcDbVertex
100
AcDb3dPolylineVertex
 10
-0.0261782351881266
 20
0.0104166669771075
 30
-0.0300204791128635
 70
    32
  0
SEQEND
  5
1BC
330
1B9
100
AcDbEntity
  8
0
 62
    18
  0
ARC
  5
1BD
330
189
100
AcDbEntity
  8
0
 62
    18
100
AcDbCircle
 10
0.0459919161060839
 20
-0.036458338220453
 30
0.0104166669771075
 40
0.0208333382204533
210
0.0
220
1.0
230
0.0
100
AcDbArc
 50
90.00000996097867
 51
161.9999897404141
  0
POLYLINE
  5
1BE
330
189
100
AcDbEntity
  8
0
 62
    18
100
AcDb3dPolyline
 66
     1
 10
0.0
 20
0.0
 30
0.0
 70
     8
  0
VERTEX
  5
1BF
330
1BE
100
AcDbEntity
  8
0
 62
    18
100
AcDbVertex
100
AcDb3dPolylineVertex
 10
-0.045991912484169
 20
0.0104166669771075
 30
-0.015625
 70
    32
  0
VERTEX
  5
1C0
330
1BE
100
AcDbEntity
  8
0
 62
    18
100
AcDbVertex
100
AcDb3dPolylineVertex
 10
-0.0833333358168602
 20
0.0104166669771075
 30
-0.015625
 70
    32
  0
SEQEND
  5
1C1
330
1BE
100
AcDbEntity
  8
0
 62
    18
  0
POLYLINE
  5
1C2
330
189
100
AcDbEntity
  8
0
 62
    18
100
AcDb3dPolyline
 66
     1
 10
0.0
 20
0.0
 30
0.0
 70
     8
  0
VERTEX
  5
1C3
330
1C2
100
AcDbEntity
  8
0
 62
    18
100
AcDbVertex
100
AcDb3dPolylineVertex
 10
-0.0833333358168602
 20
0.0104166669771075
 30
-0.015625
 70
    32
  0
VERTEX
  5
1C4
330
1C2
100
AcDbEntity
  8
0
 62
    18
100
AcDbVertex
100
AcDb3dPolylineVertex
 10
-0.0833333358168602
 20
0.0104166669771075
 30
0.015625
 70
    32
  0
SEQEND
  5
1C5
330
1C2
100
AcDbEntity
  8
0
 62
    18
  0
POLYLINE
  5
1C6
330
189
100
AcDbEntity
  8
0
 62
    18
100
AcDb3dPolyline
 66
     1
 10
0.0
 20
0.0
 30
0.0
 70
     8
  0
VERTEX
  5
1C7
330
1C6
100
AcDbEntity
  8
0
 62
    18
100
AcDbVertex
100
AcDb3dPolylineVertex
 10
-0.0833333358168602
 20
0.0104166669771075
 30
0.015625
 70
    32
  0
VERTEX
  5
1C8
330
1C6
100
AcDbEntity
  8
0
 62
    18
100
AcDbVertex
100
AcDb3dPolylineVertex
 10
-0.045991912484169
 20
0.0104166669771075
 30
0.015625
 70
    32
  0
SEQEND
  5
1C9
330
1C6
100
AcDbEntity
  8
0
 62
    18
  0
ARC
  5
1CA
330
189
100
AcDbEntity
  8
0
 62
    18
100
AcDbCircle
 10
0.0459919161060839
 20
0.036458338220453
 30
0.0104166669771075
 40
0.0208333382204533
210
0.0
220
1.0
230
0.0
100
AcDbArc
 50
198.0000102595859
 51
269.9999900390213
  0
POLYLINE
  5
1CB
330
189
100
AcDbEntity
  8
0
 62
    18
100
AcDb3dPolyline
 66
     1
 10
0.0
 20
0.0
 30
0.0
 70
     8
  0
VERTEX
  5
1CC
330
1CB
100
AcDbEntity
  8
0
 62
    18
100
AcDbVertex
100
AcDb3dPolylineVertex
 10
-0.0261782351881266
 20
0.0104166669771075
 30
0.0300204791128635
 70
    32
  0
VERTEX
  5
1CD
330
1CB
100
AcDbEntity
  8
0
 62
    18
100
AcDbVertex
100
AcDb3dPolylineVertex
 10
-0.015625
 20
0.0104166669771075
 30
0.0625
 70
    32
  0
SEQEND
  5
1CE
330
1CB
100
AcDbEntity
  8
0
 62
    18
  0
POLYLINE
  5
1CF
330
189
100
AcDbEntity
  8
0
 62
    18
100
AcDb3dPolyline
 66
     1
 10
0.0
 20
0.0
 30
0.0
 70
     8
  0
VERTEX
  5
1D0
330
1CF
100
AcDbEntity
  8
0
 62
    18
100
AcDbVertex
100
AcDb3dPolylineVertex
 10
-0.015625
 20
0.0104166669771075
 30
0.0625
 70
    32
  0
VERTEX
  5
1D1
330
1CF
100
AcDbEntity
  8
0
 62
    18
100
AcDbVertex
100
AcDb3dPolylineVertex
 10
0.015625
 20
0.0104166669771075
 30
0.0625
 70
    32
  0
SEQEND
  5
1D2
330
1CF
100
AcDbEntity
  8
0
 62
    18
  0
POLYLINE
  5
1D3
330
189
100
AcDbEntity
  8
0
 62
    18
100
AcDb3dPolyline
 66
     1
 10
0.0
 20
0.0
 30
0.0
 70
     8
  0
VERTEX
  5
1D4
330
1D3
100
AcDbEntity
  8
0
 62
    18
100
AcDbVertex
100
AcDb3dPolylineVertex
 10
0.015625
 20
0.0104166669771075
 30
0.0625
 70
    32
  0
VERTEX
  5
1D5
330
1D3
100
AcDbEntity
  8
0
 62
    18
100
AcDbVertex
100
AcDb3dPolylineVertex
 10
0.0261782351881266
 20
0.0104166669771075
 30
0.0300204791128635
 70
    32
  0
SEQEND
  5
1D6
330
1D3
100
AcDbEntity
  8
0
 62
    18
  0
ARC
  5
1D7
330
189
100
AcDbEntity
  8
0
 62
    18
100
AcDbCircle
 10
-0.0459919161060839
 20
0.036458338220453
 30
0.0104166669771075
 40
0.0208333382204533
210
0.0
220
1.0
230
0.0
100
AcDbArc
 50
270.0000099609787
 51
341.9999897404141
  0
POLYLINE
  5
1D8
330
189
100
AcDbEntity
  8
0
 62
    18
100
AcDb3dPolyline
 66
     1
 10
0.0
 20
0.0
 30
0.0
 70
     8
  0
VERTEX
  5
1D9
330
1D8
100
AcDbEntity
  8
0
 62
    18
100
AcDbVertex
100
AcDb3dPolylineVertex
 10
0.045991912484169
 20
0.0104166669771075
 30
0.015625
 70
    32
  0
VERTEX
  5
1DA
330
1D8
100
AcDbEntity
  8
0
 62
    18
100
AcDbVertex
100
AcDb3dPolylineVertex
 10
0.0833333358168602
 20
0.0104166669771075
 30
0.015625
 70
    32
  0
SEQEND
  5
1DB
330
1D8
100
AcDbEntity
  8
0
 62
    18
  0
POLYLINE
  5
1DC
330
189
100
AcDbEntity
  8
0
 62
    18
100
AcDb3dPolyline
 66
     1
 10
0.0
 20
0.0
 30
0.0
 70
     8
  0
VERTEX
  5
1DD
330
1DC
100
AcDbEntity
  8
0
 62
    18
100
AcDbVertex
100
AcDb3dPolylineVertex
 10
0.0833333358168602
 20
0.0104166669771075
 30
0.015625
 70
    32
  0
VERTEX
  5
1DE
330
1DC
100
AcDbEntity
  8
0
 62
    18
100
AcDbVertex
100
AcDb3dPolylineVertex
 10
0.0833333358168602
 20
0.0104166669771075
 30
-0.015625
 70
    32
  0
SEQEND
  5
1DF
330
1DC
100
AcDbEntity
  8
0
 62
    18
  0
POLYLINE
  5
1E0
330
189
100
AcDbEntity
  8
0
 62
    18
100
AcDb3dPolyline
 66
     1
 10
0.0
 20
0.0
 30
0.0
 70
     8
  0
VERTEX
  5
1E1
330
1E0
100
AcDbEntity
  8
0
 62
    18
100
AcDbVertex
100
AcDb3dPolylineVertex
 10
0.0833333358168602
 20
0.0104166669771075
 30
-0.015625
 70
    32
  0
VERTEX
  5
1E2
330
1E0
100
AcDbEntity
  8
0
 62
    18
100
AcDbVertex
100
AcDb3dPolylineVertex
 10
0.045991912484169
 20
0.0104166669771075
 30
-0.015625
 70
    32
  0
SEQEND
  5
1E3
330
1E0
100
AcDbEntity
  8
0
 62
    18
  0
POLYLINE
  5
1E4
330
189
100
AcDbEntity
  8
0
 62
    18
100
AcDb3dPolyline
 66
     1
 10
0.0
 20
0.0
 30
0.0
 70
     8
  0
VERTEX
  5
1E5
330
1E4
100
AcDbEntity
  8
0
 62
    18
100
AcDbVertex
100
AcDb3dPolylineVertex
 10
-0.0520833320915699
 20
0.0104166669771075
 30
0.0104166669771075
 70
    32
  0
VERTEX
  5
1E6
330
1E4
100
AcDbEntity
  8
0
 62
    18
100
AcDbVertex
100
AcDb3dPolylineVertex
 10
-0.0520833320915699
 20
0.0104166669771075
 30
-0.0104166669771075
 70
    32
  0
SEQEND
  5
1E7
330
1E4
100
AcDbEntity
  8
0
 62
    18
  0
POLYLINE
  5
1E8
330
189
100
AcDbEntity
  8
0
 62
    18
100
AcDb3dPolyline
 66
     1
 10
0.0
 20
0.0
 30
0.0
 70
     8
  0
VERTEX
  5
1E9
330
1E8
100
AcDbEntity
  8
0
 62
    18
100
AcDbVertex
100
AcDb3dPolylineVertex
 10
-0.0520833320915699
 20
0.0104166669771075
 30
-0.0104166669771075
 70
    32
  0
VERTEX
  5
1EA
330
1E8
100
AcDbEntity
  8
0
 62
    18
100
AcDbVertex
100
AcDb3dPolylineVertex
 10
0.0520833320915699
 20
0.0104166669771075
 30
-0.0104166669771075
 70
    32
  0
SEQEND
  5
1EB
330
1E8
100
AcDbEntity
  8
0
 62
    18
  0
POLYLINE
  5
1EC
330
189
100
AcDbEntity
  8
0
 62
    18
100
AcDb3dPolyline
 66
     1
 10
0.0
 20
0.0
 30
0.0
 70
     8
  0
VERTEX
  5
1ED
330
1EC
100
AcDbEntity
  8
0
 62
    18
100
AcDbVertex
100
AcDb3dPolylineVertex
 10
0.0520833320915699
 20
0.0104166669771075
 30
-0.0104166669771075
 70
    32
  0
VERTEX
  5
1EE
330
1EC
100
AcDbEntity
  8
0
 62
    18
100
AcDbVertex
100
AcDb3dPolylineVertex
 10
0.0520833320915699
 20
0.0104166669771075
 30
0.0104166669771075
 70
    32
  0
SEQEND
  5
1EF
330
1EC
100
AcDbEntity
  8
0
 62
    18
  0
POLYLINE
  5
1F0
330
189
100
AcDbEntity
  8
0
 62
    18
100
AcDb3dPolyline
 66
     1
 10
0.0
 20
0.0
 30
0.0
 70
     8
  0
VERTEX
  5
1F1
330
1F0
100
AcDbEntity
  8
0
 62
    18
100
AcDbVertex
100
AcDb3dPolylineVertex
 10
0.0520833320915699
 20
0.0104166669771075
 30
0.0104166669771075
 70
    32
  0
VERTEX
  5
1F2
330
1F0
100
AcDbEntity
  8
0
 62
    18
100
AcDbVertex
100
AcDb3dPolylineVertex
 10
-0.0520833320915699
 20
0.0104166669771075
 30
0.0104166669771075
 70
    32
  0
SEQEND
  5
1F3
330
1F0
100
AcDbEntity
  8
0
 62
    18
  0
POLYLINE
  5
1F4
330
189
100
AcDbEntity
  8
0
 62
    18
100
AcDb3dPolyline
 66
     1
 10
0.0
 20
0.0
 30
0.0
 70
     8
  0
VERTEX
  5
1F5
330
1F4
100
AcDbEntity
  8
0
 62
    18
100
AcDbVertex
100
AcDb3dPolylineVertex
 10
0.045991912484169
 20
-0.0000000000000061
 30
-0.015625
 70
    32
  0
VERTEX
  5
1F6
330
1F4
100
AcDbEntity
  8
0
 62
    18
100
AcDbVertex
100
AcDb3dPolylineVertex
 10
0.0833333358168602
 20
-0.0000000000000061
 30
-0.015625
 70
    32
  0
SEQEND
  5
1F7
330
1F4
100
AcDbEntity
  8
0
 62
    18
  0
POLYLINE
  5
1F8
330
189
100
AcDbEntity
  8
0
 62
    18
100
AcDb3dPolyline
 66
     1
 10
0.0
 20
0.0
 30
0.0
 70
     8
  0
VERTEX
  5
1F9
330
1F8
100
AcDbEntity
  8
0
 62
    18
100
AcDbVertex
100
AcDb3dPolylineVertex
 10
0.0833333358168602
 20
-0.0000000000000061
 30
-0.015625
 70
    32
  0
VERTEX
  5
1FA
330
1F8
100
AcDbEntity
  8
0
 62
    18
100
AcDbVertex
100
AcDb3dPolylineVertex
 10
0.0833333358168602
 20
-0.0000000000000061
 30
0.015625
 70
    32
  0
SEQEND
  5
1FB
330
1F8
100
AcDbEntity
  8
0
 62
    18
  0
POLYLINE
  5
1FC
330
189
100
AcDbEntity
  8
0
 62
    18
100
AcDb3dPolyline
 66
     1
 10
0.0
 20
0.0
 30
0.0
 70
     8
  0
VERTEX
  5
1FD
330
1FC
100
AcDbEntity
  8
0
 62
    18
100
AcDbVertex
100
AcDb3dPolylineVertex
 10
0.0833333358168602
 20
-0.0000000000000061
 30
0.015625
 70
    32
  0
VERTEX
  5
1FE
330
1FC
100
AcDbEntity
  8
0
 62
    18
100
AcDbVertex
100
AcDb3dPolylineVertex
 10
0.045991912484169
 20
-0.0000000000000061
 30
0.015625
 70
    32
  0
SEQEND
  5
1FF
330
1FC
100
AcDbEntity
  8
0
 62
    18
  0
ARC
  5
200
330
189
100
AcDbEntity
  8
0
 62
    18
100
AcDbCircle
 10
0.0459919161060839
 20
0.036458338220453
 30
0.0000000000000061
 40
0.0208333382204533
210
0.0
220
-1.0
230
0.0
100
AcDbArc
 50
198.0000102595859
 51
269.9999900390213
  0
POLYLINE
  5
201
330
189
100
AcDbEntity
  8
0
 62
    18
100
AcDb3dPolyline
 66
     1
 10
0.0
 20
0.0
 30
0.0
 70
     8
  0
VERTEX
  5
202
330
201
100
AcDbEntity
  8
0
 62
    18
100
AcDbVertex
100
AcDb3dPolylineVertex
 10
0.0261782351881266
 20
-0.0000000000000061
 30
0.0300204791128635
 70
    32
  0
VERTEX
  5
203
330
201
100
AcDbEntity
  8
0
 62
    18
100
AcDbVertex
100
AcDb3dPolylineVertex
 10
0.015625
 20
-0.0000000000000061
 30
0.0625
 70
    32
  0
SEQEND
  5
204
330
201
100
AcDbEntity
  8
0
 62
    18
  0
POLYLINE
  5
205
330
189
100
AcDbEntity
  8
0
 62
    18
100
AcDb3dPolyline
 66
     1
 10
0.0
 20
0.0
 30
0.0
 70
     8
  0
VERTEX
  5
206
330
205
100
AcDbEntity
  8
0
 62
    18
100
AcDbVertex
100
AcDb3dPolylineVertex
 10
0.015625
 20
-0.0000000000000061
 30
0.0625
 70
    32
  0
VERTEX
  5
207
330
205
100
AcDbEntity
  8
0
 62
    18
100
AcDbVertex
100
AcDb3dPolylineVertex
 10
-0.015625
 20
-0.0000000000000061
 30
0.0625
 70
    32
  0
SEQEND
  5
208
330
205
100
AcDbEntity
  8
0
 62
    18
  0
POLYLINE
  5
209
330
189
100
AcDbEntity
  8
0
 62
    18
100
AcDb3dPolyline
 66
     1
 10
0.0
 20
0.0
 30
0.0
 70
     8
  0
VERTEX
  5
20A
330
209
100
AcDbEntity
  8
0
 62
    18
100
AcDbVertex
100
AcDb3dPolylineVertex
 10
-0.015625
 20
-0.0000000000000061
 30
0.0625
 70
    32
  0
VERTEX
  5
20B
330
209
100
AcDbEntity
  8
0
 62
    18
100
AcDbVertex
100
AcDb3dPolylineVertex
 10
-0.0261782351881266
 20
-0.0000000000000061
 30
0.0300204791128635
 70
    32
  0
SEQEND
  5
20C
330
209
100
AcDbEntity
  8
0
 62
    18
  0
ARC
  5
20D
330
189
100
AcDbEntity
  8
0
 62
    18
100
AcDbCircle
 10
-0.0459919161060839
 20
0.036458338220453
 30
0.0000000000000061
 40
0.0208333382204533
210
0.0
220
-1.0
230
0.0
100
AcDbArc
 50
270.0000099609787
 51
341.9999897404141
  0
POLYLINE
  5
20E
330
189
100
AcDbEntity
  8
0
 62
    18
100
AcDb3dPolyline
 66
     1
 10
0.0
 20
0.0
 30
0.0
 70
     8
  0
VERTEX
  5
20F
330
20E
100
AcDbEntity
  8
0
 62
    18
100
AcDbVertex
100
AcDb3dPolylineVertex
 10
-0.045991912484169
 20
-0.0000000000000061
 30
0.015625
 70
    32
  0
VERTEX
  5
210
330
20E
100
AcDbEntity
  8
0
 62
    18
100
AcDbVertex
100
AcDb3dPolylineVertex
 10
-0.0833333358168602
 20
-0.0000000000000061
 30
0.015625
 70
    32
  0
SEQEND
  5
211
330
20E
100
AcDbEntity
  8
0
 62
    18
  0
POLYLINE
  5
212
330
189
100
AcDbEntity
  8
0
 62
    18
100
AcDb3dPolyline
 66
     1
 10
0.0
 20
0.0
 30
0.0
 70
     8
  0
VERTEX
  5
213
330
212
100
AcDbEntity
  8
0
 62
    18
100
AcDbVertex
100
AcDb3dPolylineVertex
 10
-0.0833333358168602
 20
-0.0000000000000061
 30
0.015625
 70
    32
  0
VERTEX
  5
214
330
212
100
AcDbEntity
  8
0
 62
    18
100
AcDbVertex
100
AcDb3dPolylineVertex
 10
-0.0833333358168602
 20
-0.0000000000000061
 30
-0.015625
 70
    32
  0
SEQEND
  5
215
330
212
100
AcDbEntity
  8
0
 62
    18
  0
POLYLINE
  5
216
330
189
100
AcDbEntity
  8
0
 62
    18
100
AcDb3dPolyline
 66
     1
 10
0.0
 20
0.0
 30
0.0
 70
     8
  0
VERTEX
  5
217
330
216
100
AcDbEntity
  8
0
 62
    18
100
AcDbVertex
100
AcDb3dPolylineVertex
 10
-0.0833333358168602
 20
-0.0000000000000061
 30
-0.015625
 70
    32
  0
VERTEX
  5
218
330
216
100
AcDbEntity
  8
0
 62
    18
100
AcDbVertex
100
AcDb3dPolylineVertex
 10
-0.045991912484169
 20
-0.0000000000000061
 30
-0.015625
 70
    32
  0
SEQEND
  5
219
330
216
100
AcDbEntity
  8
0
 62
    18
  0
ARC
  5
21A
330
189
100
AcDbEntity
  8
0
 62
    18
100
AcDbCircle
 10
-0.0459919161060839
 20
-0.036458338220453
 30
0.0000000000000061
 40
0.0208333382204533
210
0.0
220
-1.0
230
0.0
100
AcDbArc
 50
18.00001025958592
 51
89.99999003902133
  0
POLYLINE
  5
21B
330
189
100
AcDbEntity
  8
0
 62
    18
100
AcDb3dPolyline
 66
     1
 10
0.0
 20
0.0
 30
0.0
 70
     8
  0
VERTEX
  5
21C
330
21B
100
AcDbEntity
  8
0
 62
    18
100
AcDbVertex
100
AcDb3dPolylineVertex
 10
-0.0261782351881266
 20
-0.0000000000000061
 30
-0.0300204791128635
 70
    32
  0
VERTEX
  5
21D
330
21B
100
AcDbEntity
  8
0
 62
    18
100
AcDbVertex
100
AcDb3dPolylineVertex
 10
-0.015625
 20
-0.0000000000000061
 30
-0.0625
 70
    32
  0
SEQEND
  5
21E
330
21B
100
AcDbEntity
  8
0
 62
    18
  0
POLYLINE
  5
21F
330
189
100
AcDbEntity
  8
0
 62
    18
100
AcDb3dPolyline
 66
     1
 10
0.0
 20
0.0
 30
0.0
 70
     8
  0
VERTEX
  5
220
330
21F
100
AcDbEntity
  8
0
 62
    18
100
AcDbVertex
100
AcDb3dPolylineVertex
 10
-0.015625
 20
-0.0000000000000061
 30
-0.0625
 70
    32
  0
VERTEX
  5
221
330
21F
100
AcDbEntity
  8
0
 62
    18
100
AcDbVertex
100
AcDb3dPolylineVertex
 10
0.015625
 20
-0.0000000000000061
 30
-0.0625
 70
    32
  0
SEQEND
  5
222
330
21F
100
AcDbEntity
  8
0
 62
    18
  0
POLYLINE
  5
223
330
189
100
AcDbEntity
  8
0
 62
    18
100
AcDb3dPolyline
 66
     1
 10
0.0
 20
0.0
 30
0.0
 70
     8
  0
VERTEX
  5
224
330
223
100
AcDbEntity
  8
0
 62
    18
100
AcDbVertex
100
AcDb3dPolylineVertex
 10
0.015625
 20
-0.0000000000000061
 30
-0.0625
 70
    32
  0
VERTEX
  5
225
330
223
100
AcDbEntity
  8
0
 62
    18
100
AcDbVertex
100
AcDb3dPolylineVertex
 10
0.0261782351881266
 20
-0.0000000000000061
 30
-0.0300204791128635
 70
    32
  0
SEQEND
  5
226
330
223
100
AcDbEntity
  8
0
 62
    18
  0
ARC
  5
227
330
189
100
AcDbEntity
  8
0
 62
    18
100
AcDbCircle
 10
0.0459919161060839
 20
-0.036458338220453
 30
0.0000000000000061
 40
0.0208333382204533
210
0.0
220
-1.0
230
0.0
100
AcDbArc
 50
90.00000996097867
 51
161.9999897404141
  0
POLYLINE
  5
228
330
189
100
AcDbEntity
  8
0
 62
    18
100
AcDb3dPolyline
 66
     1
 10
0.0
 20
0.0
 30
0.0
 70
     8
  0
VERTEX
  5
229
330
228
100
AcDbEntity
  8
0
 62
    18
100
AcDbVertex
100
AcDb3dPolylineVertex
 10
0.045991912484169
 20
0.0104166669771075
 30
-0.015625
 70
    32
  0
VERTEX
  5
22A
330
228
100
AcDbEntity
  8
0
 62
    18
100
AcDbVertex
100
AcDb3dPolylineVertex
 10
0.045991912484169
 20
-0.0000000000000061
 30
-0.015625
 70
    32
  0
SEQEND
  5
22B
330
228
100
AcDbEntity
  8
0
 62
    18
  0
POLYLINE
  5
22C
330
189
100
AcDbEntity
  8
0
 62
    18
100
AcDb3dPolyline
 66
     1
 10
0.0
 20
0.0
 30
0.0
 70
     8
  0
VERTEX
  5
22D
330
22C
100
AcDbEntity
  8
0
 62
    18
100
AcDbVertex
100
AcDb3dPolylineVertex
 10
0.0261782351881266
 20
-0.0000000000000061
 30
-0.0300204791128635
 70
    32
  0
VERTEX
  5
22E
330
22C
100
AcDbEntity
  8
0
 62
    18
100
AcDbVertex
100
AcDb3dPolylineVertex
 10
0.0261782351881266
 20
0.0104166669771075
 30
-0.0300204791128635
 70
    32
  0
SEQEND
  5
22F
330
22C
100
AcDbEntity
  8
0
 62
    18
  0
POLYLINE
  5
230
330
189
100
AcDbEntity
  8
0
 62
    18
100
AcDb3dPolyline
 66
     1
 10
0.0
 20
0.0
 30
0.0
 70
     8
  0
VERTEX
  5
231
330
230
100
AcDbEntity
  8
0
 62
    18
100
AcDbVertex
100
AcDb3dPolylineVertex
 10
0.015625
 20
-0.0000000000000061
 30
-0.0625
 70
    32
  0
VERTEX
  5
232
330
230
100
AcDbEntity
  8
0
 62
    18
100
AcDbVertex
100
AcDb3dPolylineVertex
 10
0.015625
 20
0.0104166669771075
 30
-0.0625
 70
    32
  0
SEQEND
  5
233
330
230
100
AcDbEntity
  8
0
 62
    18
  0
POLYLINE
  5
234
330
189
100
AcDbEntity
  8
0
 62
    18
100
AcDb3dPolyline
 66
     1
 10
0.0
 20
0.0
 30
0.0
 70
     8
  0
VERTEX
  5
235
330
234
100
AcDbEntity
  8
0
 62
    18
100
AcDbVertex
100
AcDb3dPolylineVertex
 10
-0.015625
 20
-0.0000000000000061
 30
-0.0625
 70
    32
  0
VERTEX
  5
236
330
234
100
AcDbEntity
  8
0
 62
    18
100
AcDbVertex
100
AcDb3dPolylineVertex
 10
-0.015625
 20
0.0104166669771075
 30
-0.0625
 70
    32
  0
SEQEND
  5
237
330
234
100
AcDbEntity
  8
0
 62
    18
  0
POLYLINE
  5
238
330
189
100
AcDbEntity
  8
0
 62
    18
100
AcDb3dPolyline
 66
     1
 10
0.0
 20
0.0
 30
0.0
 70
     8
  0
VERTEX
  5
239
330
238
100
AcDbEntity
  8
0
 62
    18
100
AcDbVertex
100
AcDb3dPolylineVertex
 10
-0.0261782351881266
 20
-0.0000000000000061
 30
-0.0300204791128635
 70
    32
  0
VERTEX
  5
23A
330
238
100
AcDbEntity
  8
0
 62
    18
100
AcDbVertex
100
AcDb3dPolylineVertex
 10
-0.0261782351881266
 20
0.0104166669771075
 30
-0.0300204791128635
 70
    32
  0
SEQEND
  5
23B
330
238
100
AcDbEntity
  8
0
 62
    18
  0
POLYLINE
  5
23C
330
189
100
AcDbEntity
  8
0
 62
    18
100
AcDb3dPolyline
 66
     1
 10
0.0
 20
0.0
 30
0.0
 70
     8
  0
VERTEX
  5
23D
330
23C
100
AcDbEntity
  8
0
 62
    18
100
AcDbVertex
100
AcDb3dPolylineVertex
 10
-0.045991912484169
 20
-0.0000000000000061
 30
-0.015625
 70
    32
  0
VERTEX
  5
23E
330
23C
100
AcDbEntity
  8
0
 62
    18
100
AcDbVertex
100
AcDb3dPolylineVertex
 10
-0.045991912484169
 20
0.0104166669771075
 30
-0.015625
 70
    32
  0
SEQEND
  5
23F
330
23C
100
AcDbEntity
  8
0
 62
    18
  0
POLYLINE
  5
240
330
189
100
AcDbEntity
  8
0
 62
    18
100
AcDb3dPolyline
 66
     1
 10
0.0
 20
0.0
 30
0.0
 70
     8
  0
VERTEX
  5
241
330
240
100
AcDbEntity
  8
0
 62
    18
100
AcDbVertex
100
AcDb3dPolylineVertex
 10
-0.0833333358168602
 20
-0.0000000000000061
 30
-0.015625
 70
    32
  0
VERTEX
  5
242
330
240
100
AcDbEntity
  8
0
 62
    18
100
AcDbVertex
100
AcDb3dPolylineVertex
 10
-0.0833333358168602
 20
0.0104166669771075
 30
-0.015625
 70
    32
  0
SEQEND
  5
243
330
240
100
AcDbEntity
  8
0
 62
    18
  0
POLYLINE
  5
244
330
189
100
AcDbEntity
  8
0
 62
    18
100
AcDb3dPolyline
 66
     1
 10
0.0
 20
0.0
 30
0.0
 70
     8
  0
VERTEX
  5
245
330
244
100
AcDbEntity
  8
0
 62
    18
100
AcDbVertex
100
AcDb3dPolylineVertex
 10
-0.0833333358168602
 20
-0.0000000000000061
 30
0.015625
 70
    32
  0
VERTEX
  5
246
330
244
100
AcDbEntity
  8
0
 62
    18
100
AcDbVertex
100
AcDb3dPolylineVertex
 10
-0.0833333358168602
 20
0.0104166669771075
 30
0.015625
 70
    32
  0
SEQEND
  5
247
330
244
100
AcDbEntity
  8
0
 62
    18
  0
POLYLINE
  5
248
330
189
100
AcDbEntity
  8
0
 62
    18
100
AcDb3dPolyline
 66
     1
 10
0.0
 20
0.0
 30
0.0
 70
     8
  0
VERTEX
  5
249
330
248
100
AcDbEntity
  8
0
 62
    18
100
AcDbVertex
100
AcDb3dPolylineVertex
 10
-0.045991912484169
 20
-0.0000000000000061
 30
0.015625
 70
    32
  0
VERTEX
  5
24A
330
248
100
AcDbEntity
  8
0
 62
    18
100
AcDbVertex
100
AcDb3dPolylineVertex
 10
-0.045991912484169
 20
0.0104166669771075
 30
0.015625
 70
    32
  0
SEQEND
  5
24B
330
248
100
AcDbEntity
  8
0
 62
    18
  0
POLYLINE
  5
24C
330
189
100
AcDbEntity
  8
0
 62
    18
100
AcDb3dPolyline
 66
     1
 10
0.0
 20
0.0
 30
0.0
 70
     8
  0
VERTEX
  5
24D
330
24C
100
AcDbEntity
  8
0
 62
    18
100
AcDbVertex
100
AcDb3dPolylineVertex
 10
-0.0261782351881266
 20
-0.0000000000000061
 30
0.0300204791128635
 70
    32
  0
VERTEX
  5
24E
330
24C
100
AcDbEntity
  8
0
 62
    18
100
AcDbVertex
100
AcDb3dPolylineVertex
 10
-0.0261782351881266
 20
0.0104166669771075
 30
0.0300204791128635
 70
    32
  0
SEQEND
  5
24F
330
24C
100
AcDbEntity
  8
0
 62
    18
  0
POLYLINE
  5
250
330
189
100
AcDbEntity
  8
0
 62
    18
100
AcDb3dPolyline
 66
     1
 10
0.0
 20
0.0
 30
0.0
 70
     8
  0
VERTEX
  5
251
330
250
100
AcDbEntity
  8
0
 62
    18
100
AcDbVertex
100
AcDb3dPolylineVertex
 10
-0.015625
 20
-0.0000000000000061
 30
0.0625
 70
    32
  0
VERTEX
  5
252
330
250
100
AcDbEntity
  8
0
 62
    18
100
AcDbVertex
100
AcDb3dPolylineVertex
 10
-0.015625
 20
0.0104166669771075
 30
0.0625
 70
    32
  0
SEQEND
  5
253
330
250
100
AcDbEntity
  8
0
 62
    18
  0
POLYLINE
  5
254
330
189
100
AcDbEntity
  8
0
 62
    18
100
AcDb3dPolyline
 66
     1
 10
0.0
 20
0.0
 30
0.0
 70
     8
  0
VERTEX
  5
255
330
254
100
AcDbEntity
  8
0
 62
    18
100
AcDbVertex
100
AcDb3dPolylineVertex
 10
0.015625
 20
-0.0000000000000061
 30
0.0625
 70
    32
  0
VERTEX
  5
256
330
254
100
AcDbEntity
  8
0
 62
    18
100
AcDbVertex
100
AcDb3dPolylineVertex
 10
0.015625
 20
0.0104166669771075
 30
0.0625
 70
    32
  0
SEQEND
  5
257
330
254
100
AcDbEntity
  8
0
 62
    18
  0
POLYLINE
  5
258
330
189
100
AcDbEntity
  8
0
 62
    18
100
AcDb3dPolyline
 66
     1
 10
0.0
 20
0.0
 30
0.0
 70
     8
  0
VERTEX
  5
259
330
258
100
AcDbEntity
  8
0
 62
    18
100
AcDbVertex
100
AcDb3dPolylineVertex
 10
0.0261782351881266
 20
-0.0000000000000061
 30
0.0300204791128635
 70
    32
  0
VERTEX
  5
25A
330
258
100
AcDbEntity
  8
0
 62
    18
100
AcDbVertex
100
AcDb3dPolylineVertex
 10
0.0261782351881266
 20
0.0104166669771075
 30
0.0300204791128635
 70
    32
  0
SEQEND
  5
25B
330
258
100
AcDbEntity
  8
0
 62
    18
  0
POLYLINE
  5
25C
330
189
100
AcDbEntity
  8
0
 62
    18
100
AcDb3dPolyline
 66
     1
 10
0.0
 20
0.0
 30
0.0
 70
     8
  0
VERTEX
  5
25D
330
25C
100
AcDbEntity
  8
0
 62
    18
100
AcDbVertex
100
AcDb3dPolylineVertex
 10
0.045991912484169
 20
-0.0000000000000061
 30
0.015625
 70
    32
  0
VERTEX
  5
25E
330
25C
100
AcDbEntity
  8
0
 62
    18
100
AcDbVertex
100
AcDb3dPolylineVertex
 10
0.045991912484169
 20
0.0104166669771075
 30
0.015625
 70
    32
  0
SEQEND
  5
25F
330
25C
100
AcDbEntity
  8
0
 62
    18
  0
POLYLINE
  5
260
330
189
100
AcDbEntity
  8
0
 62
    18
100
AcDb3dPolyline
 66
     1
 10
0.0
 20
0.0
 30
0.0
 70
     8
  0
VERTEX
  5
261
330
260
100
AcDbEntity
  8
0
 62
    18
100
AcDbVertex
100
AcDb3dPolylineVertex
 10
0.0833333358168602
 20
-0.0000000000000061
 30
0.015625
 70
    32
  0
VERTEX
  5
262
330
260
100
AcDbEntity
  8
0
 62
    18
100
AcDbVertex
100
AcDb3dPolylineVertex
 10
0.0833333358168602
 20
0.0104166669771075
 30
0.015625
 70
    32
  0
SEQEND
  5
263
330
260
100
AcDbEntity
  8
0
 62
    18
  0
POLYLINE
  5
264
330
189
100
AcDbEntity
  8
0
 62
    18
100
AcDb3dPolyline
 66
     1
 10
0.0
 20
0.0
 30
0.0
 70
     8
  0
VERTEX
  5
265
330
264
100
AcDbEntity
  8
0
 62
    18
100
AcDbVertex
100
AcDb3dPolylineVertex
 10
0.0833333358168602
 20
-0.0000000000000061
 30
-0.015625
 70
    32
  0
VERTEX
  5
266
330
264
100
AcDbEntity
  8
0
 62
    18
100
AcDbVertex
100
AcDb3dPolylineVertex
 10
0.0833333358168602
 20
0.0104166669771075
 30
-0.015625
 70
    32
  0
SEQEND
  5
267
330
264
100
AcDbEntity
  8
0
 62
    18
  0
POLYLINE
  5
268
330
189
100
AcDbEntity
  8
0
 62
    18
100
AcDb3dPolyline
 66
     1
 10
0.0
 20
0.0
 30
0.0
 70
     8
  0
VERTEX
  5
269
330
268
100
AcDbEntity
  8
0
 62
    18
100
AcDbVertex
100
AcDb3dPolylineVertex
 10
-0.0520833320915699
 20
0.03125
 30
-0.0104166669771075
 70
    32
  0
VERTEX
  5
26A
330
268
100
AcDbEntity
  8
0
 62
    18
100
AcDbVertex
100
AcDb3dPolylineVertex
 10
-0.0520833320915699
 20
0.03125
 30
0.0104166669771075
 70
    32
  0
SEQEND
  5
26B
330
268
100
AcDbEntity
  8
0
 62
    18
  0
POLYLINE
  5
26C
330
189
100
AcDbEntity
  8
0
 62
    18
100
AcDb3dPolyline
 66
     1
 10
0.0
 20
0.0
 30
0.0
 70
     8
  0
VERTEX
  5
26D
330
26C
100
AcDbEntity
  8
0
 62
    18
100
AcDbVertex
100
AcDb3dPolylineVertex
 10
-0.0520833320915699
 20
0.03125
 30
0.0104166669771075
 70
    32
  0
VERTEX
  5
26E
330
26C
100
AcDbEntity
  8
0
 62
    18
100
AcDbVertex
100
AcDb3dPolylineVertex
 10
0.0520833320915699
 20
0.03125
 30
0.0104166669771075
 70
    32
  0
SEQEND
  5
26F
330
26C
100
AcDbEntity
  8
0
 62
    18
  0
POLYLINE
  5
270
330
189
100
AcDbEntity
  8
0
 62
    18
100
AcDb3dPolyline
 66
     1
 10
0.0
 20
0.0
 30
0.0
 70
     8
  0
VERTEX
  5
271
330
270
100
AcDbEntity
  8
0
 62
    18
100
AcDbVertex
100
AcDb3dPolylineVertex
 10
0.0520833320915699
 20
0.03125
 30
0.0104166669771075
 70
    32
  0
VERTEX
  5
272
330
270
100
AcDbEntity
  8
0
 62
    18
100
AcDbVertex
100
AcDb3dPolylineVertex
 10
0.0520833320915699
 20
0.03125
 30
-0.0104166669771075
 70
    32
  0
SEQEND
  5
273
330
270
100
AcDbEntity
  8
0
 62
    18
  0
POLYLINE
  5
274
330
189
100
AcDbEntity
  8
0
 62
    18
100
AcDb3dPolyline
 66
     1
 10
0.0
 20
0.0
 30
0.0
 70
     8
  0
VERTEX
  5
275
330
274
100
AcDbEntity
  8
0
 62
    18
100
AcDbVertex
100
AcDb3dPolylineVertex
 10
0.0520833320915699
 20
0.03125
 30
-0.0104166669771075
 70
    32
  0
VERTEX
  5
276
330
274
100
AcDbEntity
  8
0
 62
    18
100
AcDbVertex
100
AcDb3dPolylineVertex
 10
-0.0520833320915699
 20
0.03125
 30
-0.0104166669771075
 70
    32
  0
SEQEND
  5
277
330
274
100
AcDbEntity
  8
0
 62
    18
  0
POLYLINE
  5
278
330
189
100
AcDbEntity
  8
0
 62
    18
100
AcDb3dPolyline
 66
     1
 10
0.0
 20
0.0
 30
0.0
 70
     8
  0
VERTEX
  5
279
330
278
100
AcDbEntity
  8
0
 62
    18
100
AcDbVertex
100
AcDb3dPolylineVertex
 10
-0.0520833320915699
 20
0.03125
 30
-0.0104166669771075
 70
    32
  0
VERTEX
  5
27A
330
278
100
AcDbEntity
  8
0
 62
    18
100
AcDbVertex
100
AcDb3dPolylineVertex
 10
-0.0520833320915699
 20
0.0104166669771075
 30
-0.0104166669771075
 70
    32
  0
SEQEND
  5
27B
330
278
100
AcDbEntity
  8
0
 62
    18
  0
POLYLINE
  5
27C
330
189
100
AcDbEntity
  8
0
 62
    18
100
AcDb3dPolyline
 66
     1
 10
0.0
 20
0.0
 30
0.0
 70
     8
  0
VERTEX
  5
27D
330
27C
100
AcDbEntity
  8
0
 62
    18
100
AcDbVertex
100
AcDb3dPolylineVertex
 10
-0.0520833320915699
 20
0.0104166669771075
 30
0.0104166669771075
 70
    32
  0
VERTEX
  5
27E
330
27C
100
AcDbEntity
  8
0
 62
    18
100
AcDbVertex
100
AcDb3dPolylineVertex
 10
-0.0520833320915699
 20
0.03125
 30
0.0104166669771075
 70
    32
  0
SEQEND
  5
27F
330
27C
100
AcDbEntity
  8
0
 62
    18
  0
POLYLINE
  5
280
330
189
100
AcDbEntity
  8
0
 62
    18
100
AcDb3dPolyline
 66
     1
 10
0.0
 20
0.0
 30
0.0
 70
     8
  0
VERTEX
  5
281
330
280
100
AcDbEntity
  8
0
 62
    18
100
AcDbVertex
100
AcDb3dPolylineVertex
 10
0.0520833320915699
 20
0.0104166669771075
 30
0.0104166669771075
 70
    32
  0
VERTEX
  5
282
330
280
100
AcDbEntity
  8
0
 62
    18
100
AcDbVertex
100
AcDb3dPolylineVertex
 10
0.0520833320915699
 20
0.03125
 30
0.0104166669771075
 70
    32
  0
SEQEND
  5
283
330
280
100
AcDbEntity
  8
0
 62
    18
  0
POLYLINE
  5
284
330
189
100
AcDbEntity
  8
0
 62
    18
100
AcDb3dPolyline
 66
     1
 10
0.0
 20
0.0
 30
0.0
 70
     8
  0
VERTEX
  5
285
330
284
100
AcDbEntity
  8
0
 62
    18
100
AcDbVertex
100
AcDb3dPolylineVertex
 10
0.0520833320915699
 20
0.0104166669771075
 30
-0.0104166669771075
 70
    32
  0
VERTEX
  5
286
330
284
100
AcDbEntity
  8
0
 62
    18
100
AcDbVertex
100
AcDb3dPolylineVertex
 10
0.0520833320915699
 20
0.03125
 30
-0.0104166669771075
 70
    32
  0
SEQEND
  5
287
330
284
100
AcDbEntity
  8
0
 62
    18
  0
ENDBLK
  5
18C
330
189
100
AcDbEntity
  8
0
100
AcDbBlockEnd
  0
BLOCK
  5
28A
330
288
100
AcDbEntity
  8
0
100
AcDbBlockBegin
  2
*U5
 70
     1
 10
0.0
 20
0.0
 30
0.0
  3
*U5
  1

  0
POLYLINE
  5
28C
330
288
100
AcDbEntity
  8
0
 62
     9
100
AcDbPolyFaceMesh
 66
     1
 10
0.0
 20
0.0
 30
0.0
 70
    64
 71
   498
 72
   460
  0
VERTEX
  5
28D
330
28C
100
AcDbEntity
  8
0
 62
     9
100
AcDbVertex
100
AcDbPolyFaceMeshVertex
 10
-0.0302615314722061
 20
0.024937441572547
 30
-0.0025154317263514
 70
   192
  0
VERTEX
  5
28E
330
28C
100
AcDbEntity
  8
0
 62
     9
100
AcDbVertex
100
AcDbPolyFaceMeshVertex
 10
-0.0299660656601191
 20
0.0255432352423668
 30
-0.0026041667442769
 70
   192
  0
VERTEX
  5
28F
330
28C
100
AcDbEntity
  8
0
 62
     9
100
AcDbVertex
100
AcDbPolyFaceMeshVertex
 10
-0.029670599848032
 20
0.0261490307748318
 30
-0.0025154317263514
 70
   192
  0
VERTEX
  5
290
330
28C
100
AcDbEntity
  8
0
 62
     9
100
AcDbVertex
100
AcDbPolyFaceMeshVertex
 10
-0.0293952692300081
 20
0.026713540777564
 30
-0.0022552744485438
 70
   192
  0
VERTEX
  5
291
330
28C
100
AcDbEntity
  8
0
 62
     9
100
AcDbVertex
100
AcDbPolyFaceMeshVertex
 10
-0.0291588380932808
 20
0.0271982960402966
 30
-0.0018414239166304
 70
   192
  0
VERTEX
  5
292
330
28C
100
AcDbEntity
  8
0
 62
     9
100
AcDbVertex
100
AcDbPolyFaceMeshVertex
 10
-0.0289774183183908
 20
0.0275702625513077
 30
-0.0013020833721384
 70
   192
  0
VERTEX
  5
293
330
28C
100
AcDbEntity
  8
0
 62
     9
100
AcDbVertex
100
AcDbPolyFaceMeshVertex
 10
-0.0288633722811937
 20
0.0278040915727615
 30
-0.0006740079261363
 70
   192
  0
VERTEX
  5
294
330
28C
100
AcDbEntity
  8
0
 62
     9
100
AcDbVertex
100
AcDbPolyFaceMeshVertex
 10
-0.0288244746625423
 20
0.0278838444501162
 30
0.0000000000000283
 70
   192
  0
VERTEX
  5
295
330
28C
100
AcDbEntity
  8
0
 62
     9
100
AcDbVertex
100
AcDbPolyFaceMeshVertex
 10
-0.0288633722811937
 20
0.0278040915727615
 30
0.0006740079261363
 70
   192
  0
VERTEX
  5
296
330
28C
100
AcDbEntity
  8
0
 62
     9
100
AcDbVertex
100
AcDbPolyFaceMeshVertex
 10
-0.0289774183183908
 20
0.0275702625513077
 30
0.0013020833721384
 70
   192
  0
VERTEX
  5
297
330
28C
100
AcDbEntity
  8
0
 62
     9
100
AcDbVertex
100
AcDbPolyFaceMeshVertex
 10
-0.0291588380932808
 20
0.0271982960402966
 30
0.0018414239166304
 70
   192
  0
VERTEX
  5
298
330
28C
100
AcDbEntity
  8
0
 62
     9
100
AcDbVertex
100
AcDbPolyFaceMeshVertex
 10
-0.0293952692300081
 20
0.026713540777564
 30
0.0022552744485438
 70
   192
  0
VERTEX
  5
299
330
28C
100
AcDbEntity
  8
0
 62
     9
100
AcDbVertex
100
AcDbPolyFaceMeshVertex
 10
-0.029670599848032
 20
0.0261490307748318
 30
0.0025154317263514
 70
   192
  0
VERTEX
  5
29A
330
28C
100
AcDbEntity
  8
0
 62
     9
100
AcDbVertex
100
AcDbPolyFaceMeshVertex
 10
-0.0299660656601191
 20
0.0255432352423668
 30
0.0026041667442769
 70
   192
  0
VERTEX
  5
29B
330
28C
100
AcDbEntity
  8
0
 62
     9
100
AcDbVertex
100
AcDbPolyFaceMeshVertex
 10
-0.0302615314722061
 20
0.024937441572547
 30
0.0025154317263514
 70
   192
  0
VERTEX
  5
29C
330
28C
100
AcDbEntity
  8
0
 62
     9
100
AcDbVertex
100
AcDbPolyFaceMeshVertex
 10
-0.03053686209023
 20
0.0243729315698147
 30
0.0022552744485438
 70
   192
  0
VERTEX
  5
29D
330
28C
100
AcDbEntity
  8
0
 62
     9
100
AcDbVertex
100
AcDbPolyFaceMeshVertex
 10
-0.0307732932269573
 20
0.023888174444437
 30
0.0018414239166304
 70
   192
  0
VERTEX
  5
29E
330
28C
100
AcDbEntity
  8
0
 62
     9
100
AcDbVertex
100
AcDbPolyFaceMeshVertex
 10
-0.0309547130018473
 20
0.0235162079334259
 30
0.0013020833721384
 70
   192
  0
VERTEX
  5
29F
330
28C
100
AcDbEntity
  8
0
 62
     9
100
AcDbVertex
100
AcDbPolyFaceMeshVertex
 10
-0.0310687590390444
 20
0.0232823807746172
 30
0.0006740079261363
 70
   192
  0
VERTEX
  5
2A0
330
28C
100
AcDbEntity
  8
0
 62
     9
100
AcDbVertex
100
AcDbPolyFaceMeshVertex
 10
-0.0311076566576958
 20
0.0232026260346174
 30
0.0000000000000283
 70
   192
  0
VERTEX
  5
2A1
330
28C
100
AcDbEntity
  8
0
 62
     9
100
AcDbVertex
100
AcDbPolyFaceMeshVertex
 10
-0.0310687590390444
 20
0.0232823807746172
 30
-0.0006740079261363
 70
   192
  0
VERTEX
  5
2A2
330
28C
100
AcDbEntity
  8
0
 62
     9
100
AcDbVertex
100
AcDbPolyFaceMeshVertex
 10
-0.0309547130018473
 20
0.0235162079334259
 30
-0.0013020833721384
 70
   192
  0
VERTEX
  5
2A3
330
28C
100
AcDbEntity
  8
0
 62
     9
100
AcDbVertex
100
AcDbPolyFaceMeshVertex
 10
-0.0307732932269573
 20
0.023888174444437
 30
-0.0018414239166304
 70
   192
  0
VERTEX
  5
2A4
330
28C
100
AcDbEntity
  8
0
 62
     9
100
AcDbVertex
100
AcDbPolyFaceMeshVertex
 10
-0.03053686209023
 20
0.0243729315698147
 30
-0.0022552744485438
 70
   192
  0
VERTEX
  5
2A5
330
28C
100
AcDbEntity
  8
0
 62
     9
100
AcDbVertex
100
AcDbPolyFaceMeshVertex
 10
-0.3225398063659668
 20
0.1682409793138504
 30
-0.0026041667442769
 70
   192
  0
VERTEX
  5
2A6
330
28C
100
AcDbEntity
  8
0
 62
     9
100
AcDbVertex
100
AcDbPolyFaceMeshVertex
 10
-0.3228352665901184
 20
0.1676351875066757
 30
-0.0025154317263514
 70
   192
  0
VERTEX
  5
2A7
330
28C
100
AcDbEntity
  8
0
 62
     9
100
AcDbVertex
100
AcDbPolyFaceMeshVertex
 10
-0.3231106102466583
 20
0.167070671916008
 30
-0.0022552744485438
 70
   192
  0
VERTEX
  5
2A8
330
28C
100
AcDbEntity
  8
0
 62
     9
100
AcDbVertex
100
AcDbPolyFaceMeshVertex
 10
-0.3233470320701599
 20
0.1665859222412109
 30
-0.0018414239166304
 70
   192
  0
VERTEX
  5
2A9
330
28C
100
AcDbEntity
  8
0
 62
     9
100
AcDbVertex
100
AcDbPolyFaceMeshVertex
 10
-0.3235284388065338
 20
0.1662139594554901
 30
-0.0013020833721384
 70
   192
  0
VERTEX
  5
2AA
330
28C
100
AcDbEntity
  8
0
 62
     9
100
AcDbVertex
100
AcDbPolyFaceMeshVertex
 10
-0.3236424922943115
 20
0.1659801304340363
 30
-0.0006740079261363
 70
   192
  0
VERTEX
  5
2AB
330
28C
100
AcDbEntity
  8
0
 62
     9
100
AcDbVertex
100
AcDbPolyFaceMeshVertex
 10
-0.3236813843250275
 20
0.1659003794193268
 30
0.0000000000000329
 70
   192
  0
VERTEX
  5
2AC
330
28C
100
AcDbEntity
  8
0
 62
     9
100
AcDbVertex
100
AcDbPolyFaceMeshVertex
 10
-0.3236424922943115
 20
0.1659801304340363
 30
0.0006740079261363
 70
   192
  0
VERTEX
  5
2AD
330
28C
100
AcDbEntity
  8
0
 62
     9
100
AcDbVertex
100
AcDbPolyFaceMeshVertex
 10
-0.3235284388065338
 20
0.1662139594554901
 30
0.0013020833721384
 70
   192
  0
VERTEX
  5
2AE
330
28C
100
AcDbEntity
  8
0
 62
     9
100
AcDbVertex
100
AcDbPolyFaceMeshVertex
 10
-0.3233470320701599
 20
0.1665859222412109
 30
0.0018414239166304
 70
   192
  0
VERTEX
  5
2AF
330
28C
100
AcDbEntity
  8
0
 62
     9
100
AcDbVertex
100
AcDbPolyFaceMeshVertex
 10
-0.3231106102466583
 20
0.167070671916008
 30
0.0022552744485438
 70
   192
  0
VERTEX
  5
2B0
330
28C
100
AcDbEntity
  8
0
 62
     9
100
AcDbVertex
100
AcDbPolyFaceMeshVertex
 10
-0.3228352665901184
 20
0.1676351875066757
 30
0.0025154317263514
 70
   192
  0
VERTEX
  5
2B1
330
28C
100
AcDbEntity
  8
0
 62
     9
100
AcDbVertex
100
AcDbPolyFaceMeshVertex
 10
-0.3225398063659668
 20
0.1682409793138504
 30
0.0026041667442769
 70
   192
  0
VERTEX
  5
2B2
330
28C
100
AcDbEntity
  8
0
 62
     9
100
AcDbVertex
100
AcDbPolyFaceMeshVertex
 10
-0.3222443461418152
 20
0.1688467711210251
 30
0.0025154317263514
 70
   192
  0
VERTEX
  5
2B3
330
28C
100
AcDbEntity
  8
0
 62
     9
100
AcDbVertex
100
AcDbPolyFaceMeshVertex
 10
-0.3219690024852753
 20
0.1694112867116928
 30
0.0022552744485438
 70
   192
  0
VERTEX
  5
2B4
330
28C
100
AcDbEntity
  8
0
 62
     9
100
AcDbVertex
100
AcDbPolyFaceMeshVertex
 10
-0.3217325806617737
 20
0.1698960512876511
 30
0.0018414239166304
 70
   192
  0
VERTEX
  5
2B5
330
28C
100
AcDbEntity
  8
0
 62
     9
100
AcDbVertex
100
AcDbPolyFaceMeshVertex
 10
-0.3215511441230774
 20
0.1702680140733719
 30
0.0013020833721384
 70
   192
  0
VERTEX
  5
2B6
330
28C
100
AcDbEntity
  8
0
 62
     9
100
AcDbVertex
100
AcDbPolyFaceMeshVertex
 10
-0.3214371204376221
 20
0.1705018430948257
 30
0.0006740079261363
 70
   192
  0
VERTEX
  5
2B7
330
28C
100
AcDbEntity
  8
0
 62
     9
100
AcDbVertex
100
AcDbPolyFaceMeshVertex
 10
-0.3213982284069061
 20
0.1705815941095352
 30
0.0000000000000328
 70
   192
  0
VERTEX
  5
2B8
330
28C
100
AcDbEntity
  8
0
 62
     9
100
AcDbVertex
100
AcDbPolyFaceMeshVertex
 10
-0.3214371204376221
 20
0.1705018430948257
 30
-0.0006740079261363
 70
   192
  0
VERTEX
  5
2B9
330
28C
100
AcDbEntity
  8
0
 62
     9
100
AcDbVertex
100
AcDbPolyFaceMeshVertex
 10
-0.3215511441230774
 20
0.1702680140733719
 30
-0.0013020833721384
 70
   192
  0
VERTEX
  5
2BA
330
28C
100
AcDbEntity
  8
0
 62
     9
100
AcDbVertex
100
AcDbPolyFaceMeshVertex
 10
-0.3217325806617737
 20
0.1698960512876511
 30
-0.0018414239166304
 70
   192
  0
VERTEX
  5
2BB
330
28C
100
AcDbEntity
  8
0
 62
     9
100
AcDbVertex
100
AcDbPolyFaceMeshVertex
 10
-0.3219690024852753
 20
0.1694112867116928
 30
-0.0022552744485438
 70
   192
  0
VERTEX
  5
2BC
330
28C
100
AcDbEntity
  8
0
 62
     9
100
AcDbVertex
100
AcDbPolyFaceMeshVertex
 10
-0.3222443461418152
 20
0.1688467711210251
 30
-0.0025154317263514
 70
   192
  0
VERTEX
  5
2BD
330
28C
100
AcDbEntity
  8
0
 62
     9
100
AcDbVertex
100
AcDbPolyFaceMeshVertex
 10
-0.3214371204376221
 20
0.1705018430948257
 30
0.0006740079261363
 70
   192
  0
VERTEX
  5
2BE
330
28C
100
AcDbEntity
  8
0
 62
     9
100
AcDbVertex
100
AcDbPolyFaceMeshVertex
 10
-0.3215511441230774
 20
0.1702680140733719
 30
0.0013020833721384
 70
   192
  0
VERTEX
  5
2BF
330
28C
100
AcDbEntity
  8
0
 62
     9
100
AcDbVertex
100
AcDbPolyFaceMeshVertex
 10
-0.3217325806617737
 20
0.1698960512876511
 30
0.0018414239166304
 70
   192
  0
VERTEX
  5
2C0
330
28C
100
AcDbEntity
  8
0
 62
     9
100
AcDbVertex
100
AcDbPolyFaceMeshVertex
 10
-0.3219690024852753
 20
0.1694112867116928
 30
0.0022552744485438
 70
   192
  0
VERTEX
  5
2C1
330
28C
100
AcDbEntity
  8
0
 62
     9
100
AcDbVertex
100
AcDbPolyFaceMeshVertex
 10
-0.3222443461418152
 20
0.1688467711210251
 30
0.0025154317263514
 70
   192
  0
VERTEX
  5
2C2
330
28C
100
AcDbEntity
  8
0
 62
     9
100
AcDbVertex
100
AcDbPolyFaceMeshVertex
 10
-0.3225398063659668
 20
0.1682409793138504
 30
0.0026041667442769
 70
   192
  0
VERTEX
  5
2C3
330
28C
100
AcDbEntity
  8
0
 62
     9
100
AcDbVertex
100
AcDbPolyFaceMeshVertex
 10
-0.3228352665901184
 20
0.1676351875066757
 30
0.0025154317263514
 70
   192
  0
VERTEX
  5
2C4
330
28C
100
AcDbEntity
  8
0
 62
     9
100
AcDbVertex
100
AcDbPolyFaceMeshVertex
 10
-0.3231106102466583
 20
0.167070671916008
 30
0.0022552744485438
 70
   192
  0
VERTEX
  5
2C5
330
28C
100
AcDbEntity
  8
0
 62
     9
100
AcDbVertex
100
AcDbPolyFaceMeshVertex
 10
-0.3233470320701599
 20
0.1665859222412109
 30
0.0018414239166304
 70
   192
  0
VERTEX
  5
2C6
330
28C
100
AcDbEntity
  8
0
 62
     9
100
AcDbVertex
100
AcDbPolyFaceMeshVertex
 10
-0.3235284388065338
 20
0.1662139594554901
 30
0.0013020833721384
 70
   192
  0
VERTEX
  5
2C7
330
28C
100
AcDbEntity
  8
0
 62
     9
100
AcDbVertex
100
AcDbPolyFaceMeshVertex
 10
-0.3236424922943115
 20
0.1659801304340363
 30
0.0006740079261363
 70
   192
  0
VERTEX
  5
2C8
330
28C
100
AcDbEntity
  8
0
 62
     9
100
AcDbVertex
100
AcDbPolyFaceMeshVertex
 10
-0.3236813843250275
 20
0.1659003794193268
 30
0.0000000000000329
 70
   192
  0
VERTEX
  5
2C9
330
28C
100
AcDbEntity
  8
0
 62
     9
100
AcDbVertex
100
AcDbPolyFaceMeshVertex
 10
-0.0311076566576958
 20
0.0232026260346174
 30
0.0000000000000284
 70
   192
  0
VERTEX
  5
2CA
330
28C
100
AcDbEntity
  8
0
 62
     9
100
AcDbVertex
100
AcDbPolyFaceMeshVertex
 10
-0.0310687590390444
 20
0.0232823807746172
 30
0.0006740079261363
 70
   192
  0
VERTEX
  5
2CB
330
28C
100
AcDbEntity
  8
0
 62
     9
100
AcDbVertex
100
AcDbPolyFaceMeshVertex
 10
-0.0309547130018473
 20
0.0235162079334259
 30
0.0013020833721384
 70
   192
  0
VERTEX
  5
2CC
330
28C
100
AcDbEntity
  8
0
 62
     9
100
AcDbVertex
100
AcDbPolyFaceMeshVertex
 10
-0.0307732932269573
 20
0.023888174444437
 30
0.0018414239166304
 70
   192
  0
VERTEX
  5
2CD
330
28C
100
AcDbEntity
  8
0
 62
     9
100
AcDbVertex
100
AcDbPolyFaceMeshVertex
 10
-0.03053686209023
 20
0.0243729315698147
 30
0.0022552744485438
 70
   192
  0
VERTEX
  5
2CE
330
28C
100
AcDbEntity
  8
0
 62
     9
100
AcDbVertex
100
AcDbPolyFaceMeshVertex
 10
-0.0302615314722061
 20
0.024937441572547
 30
0.0025154317263514
 70
   192
  0
VERTEX
  5
2CF
330
28C
100
AcDbEntity
  8
0
 62
     9
100
AcDbVertex
100
AcDbPolyFaceMeshVertex
 10
-0.0299660656601191
 20
0.0255432352423668
 30
0.0026041667442769
 70
   192
  0
VERTEX
  5
2D0
330
28C
100
AcDbEntity
  8
0
 62
     9
100
AcDbVertex
100
AcDbPolyFaceMeshVertex
 10
-0.029670599848032
 20
0.0261490307748318
 30
0.0025154317263514
 70
   192
  0
VERTEX
  5
2D1
330
28C
100
AcDbEntity
  8
0
 62
     9
100
AcDbVertex
100
AcDbPolyFaceMeshVertex
 10
-0.0293952692300081
 20
0.026713540777564
 30
0.0022552744485438
 70
   192
  0
VERTEX
  5
2D2
330
28C
100
AcDbEntity
  8
0
 62
     9
100
AcDbVertex
100
AcDbPolyFaceMeshVertex
 10
-0.0291588380932808
 20
0.0271982960402966
 30
0.0018414239166304
 70
   192
  0
VERTEX
  5
2D3
330
28C
100
AcDbEntity
  8
0
 62
     9
100
AcDbVertex
100
AcDbPolyFaceMeshVertex
 10
-0.0289774183183908
 20
0.0275702625513077
 30
0.0013020833721384
 70
   192
  0
VERTEX
  5
2D4
330
28C
100
AcDbEntity
  8
0
 62
     9
100
AcDbVertex
100
AcDbPolyFaceMeshVertex
 10
-0.0288633722811937
 20
0.0278040915727615
 30
0.0006740079261363
 70
   192
  0
VERTEX
  5
2D5
330
28C
100
AcDbEntity
  8
0
 62
     9
100
AcDbVertex
100
AcDbPolyFaceMeshVertex
 10
-0.0288244746625423
 20
0.0278838444501162
 30
0.0000000000000283
 70
   192
  0
VERTEX
  5
2D6
330
28C
100
AcDbEntity
  8
0
 62
     9
100
AcDbVertex
100
AcDbPolyFaceMeshVertex
 10
-0.3213982284069061
 20
0.1705815941095352
 30
0.0000000000000328
 70
   192
  0
VERTEX
  5
2D7
330
28C
100
AcDbEntity
  8
0
 62
     9
100
AcDbVertex
100
AcDbPolyFaceMeshVertex
 10
-0.3236424922943115
 20
0.1659801304340363
 30
-0.0006740079261363
 70
   192
  0
VERTEX
  5
2D8
330
28C
100
AcDbEntity
  8
0
 62
     9
100
AcDbVertex
100
AcDbPolyFaceMeshVertex
 10
-0.3235284388065338
 20
0.1662139594554901
 30
-0.0013020833721384
 70
   192
  0
VERTEX
  5
2D9
330
28C
100
AcDbEntity
  8
0
 62
     9
100
AcDbVertex
100
AcDbPolyFaceMeshVertex
 10
-0.3233470320701599
 20
0.1665859222412109
 30
-0.0018414239166304
 70
   192
  0
VERTEX
  5
2DA
330
28C
100
AcDbEntity
  8
0
 62
     9
100
AcDbVertex
100
AcDbPolyFaceMeshVertex
 10
-0.3231106102466583
 20
0.167070671916008
 30
-0.0022552744485438
 70
   192
  0
VERTEX
  5
2DB
330
28C
100
AcDbEntity
  8
0
 62
     9
100
AcDbVertex
100
AcDbPolyFaceMeshVertex
 10
-0.3228352665901184
 20
0.1676351875066757
 30
-0.0025154317263514
 70
   192
  0
VERTEX
  5
2DC
330
28C
100
AcDbEntity
  8
0
 62
     9
100
AcDbVertex
100
AcDbPolyFaceMeshVertex
 10
-0.3225398063659668
 20
0.1682409793138504
 30
-0.0026041667442769
 70
   192
  0
VERTEX
  5
2DD
330
28C
100
AcDbEntity
  8
0
 62
     9
100
AcDbVertex
100
AcDbPolyFaceMeshVertex
 10
-0.3222443461418152
 20
0.1688467711210251
 30
-0.0025154317263514
 70
   192
  0
VERTEX
  5
2DE
330
28C
100
AcDbEntity
  8
0
 62
     9
100
AcDbVertex
100
AcDbPolyFaceMeshVertex
 10
-0.3219690024852753
 20
0.1694112867116928
 30
-0.0022552744485438
 70
   192
  0
VERTEX
  5
2DF
330
28C
100
AcDbEntity
  8
0
 62
     9
100
AcDbVertex
100
AcDbPolyFaceMeshVertex
 10
-0.3217325806617737
 20
0.1698960512876511
 30
-0.0018414239166304
 70
   192
  0
VERTEX
  5
2E0
330
28C
100
AcDbEntity
  8
0
 62
     9
100
AcDbVertex
100
AcDbPolyFaceMeshVertex
 10
-0.3215511441230774
 20
0.1702680140733719
 30
-0.0013020833721384
 70
   192
  0
VERTEX
  5
2E1
330
28C
100
AcDbEntity
  8
0
 62
     9
100
AcDbVertex
100
AcDbPolyFaceMeshVertex
 10
-0.3214371204376221
 20
0.1705018430948257
 30
-0.0006740079261363
 70
   192
  0
VERTEX
  5
2E2
330
28C
100
AcDbEntity
  8
0
 62
     9
100
AcDbVertex
100
AcDbPolyFaceMeshVertex
 10
-0.3213982284069061
 20
0.1705815941095352
 30
0.0000000000000328
 70
   192
  0
VERTEX
  5
2E3
330
28C
100
AcDbEntity
  8
0
 62
     9
100
AcDbVertex
100
AcDbPolyFaceMeshVertex
 10
-0.0288633722811937
 20
0.0278040915727615
 30
-0.0006740079261363
 70
   192
  0
VERTEX
  5
2E4
330
28C
100
AcDbEntity
  8
0
 62
     9
100
AcDbVertex
100
AcDbPolyFaceMeshVertex
 10
-0.0289774183183908
 20
0.0275702625513077
 30
-0.0013020833721384
 70
   192
  0
VERTEX
  5
2E5
330
28C
100
AcDbEntity
  8
0
 62
     9
100
AcDbVertex
100
AcDbPolyFaceMeshVertex
 10
-0.0291588380932808
 20
0.0271982960402966
 30
-0.0018414239166304
 70
   192
  0
VERTEX
  5
2E6
330
28C
100
AcDbEntity
  8
0
 62
     9
100
AcDbVertex
100
AcDbPolyFaceMeshVertex
 10
-0.0293952692300081
 20
0.026713540777564
 30
-0.0022552744485438
 70
   192
  0
VERTEX
  5
2E7
330
28C
100
AcDbEntity
  8
0
 62
     9
100
AcDbVertex
100
AcDbPolyFaceMeshVertex
 10
-0.029670599848032
 20
0.0261490307748318
 30
-0.0025154317263514
 70
   192
  0
VERTEX
  5
2E8
330
28C
100
AcDbEntity
  8
0
 62
     9
100
AcDbVertex
100
AcDbPolyFaceMeshVertex
 10
-0.0299660656601191
 20
0.0255432352423668
 30
-0.0026041667442769
 70
   192
  0
VERTEX
  5
2E9
330
28C
100
AcDbEntity
  8
0
 62
     9
100
AcDbVertex
100
AcDbPolyFaceMeshVertex
 10
-0.0302615314722061
 20
0.024937441572547
 30
-0.0025154317263514
 70
   192
  0
VERTEX
  5
2EA
330
28C
100
AcDbEntity
  8
0
 62
     9
100
AcDbVertex
100
AcDbPolyFaceMeshVertex
 10
-0.03053686209023
 20
0.0243729315698147
 30
-0.0022552744485438
 70
   192
  0
VERTEX
  5
2EB
330
28C
100
AcDbEntity
  8
0
 62
     9
100
AcDbVertex
100
AcDbPolyFaceMeshVertex
 10
-0.0307732932269573
 20
0.023888174444437
 30
-0.0018414239166304
 70
   192
  0
VERTEX
  5
2EC
330
28C
100
AcDbEntity
  8
0
 62
     9
100
AcDbVertex
100
AcDbPolyFaceMeshVertex
 10
-0.0309547130018473
 20
0.0235162079334259
 30
-0.0013020833721384
 70
   192
  0
VERTEX
  5
2ED
330
28C
100
AcDbEntity
  8
0
 62
     9
100
AcDbVertex
100
AcDbPolyFaceMeshVertex
 10
-0.0310687590390444
 20
0.0232823807746172
 30
-0.0006740079261363
 70
   192
  0
VERTEX
  5
2EE
330
28C
100
AcDbEntity
  8
0
 62
     9
100
AcDbVertex
100
AcDbPolyFaceMeshVertex
 10
-0.0311076566576958
 20
0.0232026260346174
 30
0.0000000000000283
 70
   192
  0
VERTEX
  5
2EF
330
28C
100
AcDbEntity
  8
0
 62
     9
100
AcDbVertex
100
AcDbPolyFaceMeshVertex
 10
-0.3236813843250275
 20
0.1659003794193268
 30
0.0000000000000328
 70
   192
  0
VERTEX
  5
2F0
330
28C
100
AcDbEntity
  8
0
 62
     9
100
AcDbVertex
100
AcDbPolyFaceMeshVertex
 10
-0.018144378438592
 20
0.0244896374642849
 30
-0.0022552744485438
 70
   192
  0
VERTEX
  5
2F1
330
28C
100
AcDbEntity
  8
0
 62
     9
100
AcDbVertex
100
AcDbPolyFaceMeshVertex
 10
-0.0176117401570082
 20
0.0248224679380655
 30
-0.0025154317263514
 70
   192
  0
VERTEX
  5
2F2
330
28C
100
AcDbEntity
  8
0
 62
     9
100
AcDbVertex
100
AcDbPolyFaceMeshVertex
 10
-0.0170401502400637
 20
0.0251796375960112
 30
-0.0026041667442769
 70
   192
  0
VERTEX
  5
2F3
330
28C
100
AcDbEntity
  8
0
 62
     9
100
AcDbVertex
100
AcDbPolyFaceMeshVertex
 10
-0.016468558460474
 20
0.0255368072539568
 30
-0.0025154317263514
 70
   192
  0
VERTEX
  5
2F4
330
28C
100
AcDbEntity
  8
0
 62
     9
100
AcDbVertex
100
AcDbPolyFaceMeshVertex
 10
-0.0159359201788902
 20
0.0258696358650923
 30
-0.0022552744485438
 70
   192
  0
VERTEX
  5
2F5
330
28C
100
AcDbEntity
  8
0
 62
     9
100
AcDbVertex
100
AcDbPolyFaceMeshVertex
 10
-0.0154785336926579
 20
0.0261554438620806
 30
-0.0018414239166304
 70
   192
  0
VERTEX
  5
2F6
330
28C
100
AcDbEntity
  8
0
 62
     9
100
AcDbVertex
100
AcDbPolyFaceMeshVertex
 10
-0.0151275685057044
 20
0.0263747498393059
 30
-0.0013020833721384
 70
   192
  0
VERTEX
  5
2F7
330
28C
100
AcDbEntity
  8
0
 62
     9
100
AcDbVertex
100
AcDbPolyFaceMeshVertex
 10
-0.0149069428443909
 20
0.0265126135200262
 30
-0.0006740079261363
 70
   192
  0
VERTEX
  5
2F8
330
28C
100
AcDbEntity
  8
0
 62
     9
100
AcDbVertex
100
AcDbPolyFaceMeshVertex
 10
-0.0148316910490394
 20
0.0265596359968185
 30
0.000000000000028
 70
   192
  0
VERTEX
  5
2F9
330
28C
100
AcDbEntity
  8
0
 62
     9
100
AcDbVertex
100
AcDbPolyFaceMeshVertex
 10
-0.0149069428443909
 20
0.0265126135200262
 30
0.0006740079261363
 70
   192
  0
VERTEX
  5
2FA
330
28C
100
AcDbEntity
  8
0
 62
     9
100
AcDbVertex
100
AcDbPolyFaceMeshVertex
 10
-0.0151275685057044
 20
0.0263747498393059
 30
0.0013020833721384
 70
   192
  0
VERTEX
  5
2FB
330
28C
100
AcDbEntity
  8
0
 62
     9
100
AcDbVertex
100
AcDbPolyFaceMeshVertex
 10
-0.0154785336926579
 20
0.0261554438620806
 30
0.0018414239166304
 70
   192
  0
VERTEX
  5
2FC
330
28C
100
AcDbEntity
  8
0
 62
     9
100
AcDbVertex
100
AcDbPolyFaceMeshVertex
 10
-0.0159359201788902
 20
0.0258696358650923
 30
0.0022552744485438
 70
   192
  0
VERTEX
  5
2FD
330
28C
100
AcDbEntity
  8
0
 62
     9
100
AcDbVertex
100
AcDbPolyFaceMeshVertex
 10
-0.016468558460474
 20
0.0255368072539568
 30
0.0025154317263514
 70
   192
  0
VERTEX
  5
2FE
330
28C
100
AcDbEntity
  8
0
 62
     9
100
AcDbVertex
100
AcDbPolyFaceMeshVertex
 10
-0.0170401502400637
 20
0.0251796375960112
 30
0.0026041667442769
 70
   192
  0
VERTEX
  5
2FF
330
28C
100
AcDbEntity
  8
0
 62
     9
100
AcDbVertex
100
AcDbPolyFaceMeshVertex
 10
-0.0176117401570082
 20
0.0248224679380655
 30
0.0025154317263514
 70
   192
  0
VERTEX
  5
300
330
28C
100
AcDbEntity
  8
0
 62
     9
100
AcDbVertex
100
AcDbPolyFaceMeshVertex
 10
-0.018144378438592
 20
0.0244896374642849
 30
0.0022552744485438
 70
   192
  0
VERTEX
  5
301
330
28C
100
AcDbEntity
  8
0
 62
     9
100
AcDbVertex
100
AcDbPolyFaceMeshVertex
 10
-0.0186017658561468
 20
0.0242038313299417
 30
0.0018414239166304
 70
   192
  0
VERTEX
  5
302
330
28C
100
AcDbEntity
  8
0
 62
     9
100
AcDbVertex
100
AcDbPolyFaceMeshVertex
 10
-0.0189527310431004
 20
0.0239845234900713
 30
0.0013020833721384
 70
   192
  0
VERTEX
  5
303
330
28C
100
AcDbEntity
  8
0
 62
     9
100
AcDbVertex
100
AcDbPolyFaceMeshVertex
 10
-0.0191733576357365
 20
0.0238466616719961
 30
0.0006740079261363
 70
   192
  0
VERTEX
  5
304
330
28C
100
AcDbEntity
  8
0
 62
     9
100
AcDbVertex
100
AcDbPolyFaceMeshVertex
 10
-0.0192486084997654
 20
0.0237996391952038
 30
0.000000000000028
 70
   192
  0
VERTEX
  5
305
330
28C
100
AcDbEntity
  8
0
 62
     9
100
AcDbVertex
100
AcDbPolyFaceMeshVertex
 10
-0.0191733576357365
 20
0.0238466616719961
 30
-0.0006740079261363
 70
   192
  0
VERTEX
  5
306
330
28C
100
AcDbEntity
  8
0
 62
     9
100
AcDbVertex
100
AcDbPolyFaceMeshVertex
 10
-0.0189527310431004
 20
0.0239845234900713
 30
-0.0013020833721384
 70
   192
  0
VERTEX
  5
307
330
28C
100
AcDbEntity
  8
0
 62
     9
100
AcDbVertex
100
AcDbPolyFaceMeshVertex
 10
-0.0186017658561468
 20
0.0242038313299417
 30
-0.0018414239166304
 70
   192
  0
VERTEX
  5
308
330
28C
100
AcDbEntity
  8
0
 62
     9
100
AcDbVertex
100
AcDbPolyFaceMeshVertex
 10
-0.2029930800199509
 20
0.3227665424346924
 30
-0.0026041667442769
 70
   192
  0
VERTEX
  5
309
330
28C
100
AcDbEntity
  8
0
 62
     9
100
AcDbVertex
100
AcDbPolyFaceMeshVertex
 10
-0.2035646736621857
 20
0.3224093616008759
 30
-0.0025154317263514
 70
   192
  0
VERTEX
  5
30A
330
28C
100
AcDbEntity
  8
0
 62
     9
100
AcDbVertex
100
AcDbPolyFaceMeshVertex
 10
-0.2040973156690598
 20
0.3220765292644501
 30
-0.0022552744485438
 70
   192
  0
VERTEX
  5
30B
330
28C
100
AcDbEntity
  8
0
 62
     9
100
AcDbVertex
100
AcDbPolyFaceMeshVertex
 10
-0.2045546919107437
 20
0.3217907249927521
 30
-0.0018414239166304
 70
   192
  0
VERTEX
  5
30C
330
28C
100
AcDbEntity
  8
0
 62
     9
100
AcDbVertex
100
AcDbPolyFaceMeshVertex
 10
-0.2049056589603424
 20
0.321571409702301
 30
-0.0013020833721384
 70
   192
  0
VERTEX
  5
30D
330
28C
100
AcDbEntity
  8
0
 62
     9
100
AcDbVertex
100
AcDbPolyFaceMeshVertex
 10
-0.2051262855529785
 20
0.3214335441589355
 30
-0.0006740079261363
 70
   192
  0
VERTEX
  5
30E
330
28C
100
AcDbEntity
  8
0
 62
     9
100
AcDbVertex
100
AcDbPolyFaceMeshVertex
 10
-0.2052015364170074
 20
0.3213865458965302
 30
0.0000000000000329
 70
   192
  0
VERTEX
  5
30F
330
28C
100
AcDbEntity
  8
0
 62
     9
100
AcDbVertex
100
AcDbPolyFaceMeshVertex
 10
-0.2051262855529785
 20
0.3214335441589355
 30
0.0006740079261363
 70
   192
  0
VERTEX
  5
310
330
28C
100
AcDbEntity
  8
0
 62
     9
100
AcDbVertex
100
AcDbPolyFaceMeshVertex
 10
-0.2049056589603424
 20
0.321571409702301
 30
0.0013020833721384
 70
   192
  0
VERTEX
  5
311
330
28C
100
AcDbEntity
  8
0
 62
     9
100
AcDbVertex
100
AcDbPolyFaceMeshVertex
 10
-0.2045546919107437
 20
0.3217907249927521
 30
0.0018414239166304
 70
   192
  0
VERTEX
  5
312
330
28C
100
AcDbEntity
  8
0
 62
     9
100
AcDbVertex
100
AcDbPolyFaceMeshVertex
 10
-0.2040973156690598
 20
0.3220765292644501
 30
0.0022552744485438
 70
   192
  0
VERTEX
  5
313
330
28C
100
AcDbEntity
  8
0
 62
     9
100
AcDbVertex
100
AcDbPolyFaceMeshVertex
 10
-0.2035646736621857
 20
0.3224093616008759
 30
0.0025154317263514
 70
   192
  0
VERTEX
  5
314
330
28C
100
AcDbEntity
  8
0
 62
     9
100
AcDbVertex
100
AcDbPolyFaceMeshVertex
 10
-0.2029930800199509
 20
0.3227665424346924
 30
0.0026041667442769
 70
   192
  0
VERTEX
  5
315
330
28C
100
AcDbEntity
  8
0
 62
     9
100
AcDbVertex
100
AcDbPolyFaceMeshVertex
 10
-0.2024214863777161
 20
0.3231236934661865
 30
0.0025154317263514
 70
   192
  0
VERTEX
  5
316
330
28C
100
AcDbEntity
  8
0
 62
     9
100
AcDbVertex
100
AcDbPolyFaceMeshVertex
 10
-0.201888844370842
 20
0.3234565258026123
 30
0.0022552744485438
 70
   192
  0
VERTEX
  5
317
330
28C
100
AcDbEntity
  8
0
 62
     9
100
AcDbVertex
100
AcDbPolyFaceMeshVertex
 10
-0.201431468129158
 20
0.3237423300743103
 30
0.0018414239166304
 70
   192
  0
VERTEX
  5
318
330
28C
100
AcDbEntity
  8
0
 62
     9
100
AcDbVertex
100
AcDbPolyFaceMeshVertex
 10
-0.2010805010795593
 20
0.3239616453647614
 30
0.0013020833721384
 70
   192
  0
VERTEX
  5
319
330
28C
100
AcDbEntity
  8
0
 62
     9
100
AcDbVertex
100
AcDbPolyFaceMeshVertex
 10
-0.2008598744869232
 20
0.3240995109081268
 30
0.0006740079261363
 70
   192
  0
VERTEX
  5
31A
330
28C
100
AcDbEntity
  8
0
 62
     9
100
AcDbVertex
100
AcDbPolyFaceMeshVertex
 10
-0.2007846236228943
 20
0.3241465389728546
 30
0.0000000000000328
 70
   192
  0
VERTEX
  5
31B
330
28C
100
AcDbEntity
  8
0
 62
     9
100
AcDbVertex
100
AcDbPolyFaceMeshVertex
 10
-0.2008598744869232
 20
0.3240995109081268
 30
-0.0006740079261363
 70
   192
  0
VERTEX
  5
31C
330
28C
100
AcDbEntity
  8
0
 62
     9
100
AcDbVertex
100
AcDbPolyFaceMeshVertex
 10
-0.2010805010795593
 20
0.3239616453647614
 30
-0.0013020833721384
 70
   192
  0
VERTEX
  5
31D
330
28C
100
AcDbEntity
  8
0
 62
     9
100
AcDbVertex
100
AcDbPolyFaceMeshVertex
 10
-0.201431468129158
 20
0.3237423300743103
 30
-0.0018414239166304
 70
   192
  0
VERTEX
  5
31E
330
28C
100
AcDbEntity
  8
0
 62
     9
100
AcDbVertex
100
AcDbPolyFaceMeshVertex
 10
-0.201888844370842
 20
0.3234565258026123
 30
-0.0022552744485438
 70
   192
  0
VERTEX
  5
31F
330
28C
100
AcDbEntity
  8
0
 62
     9
100
AcDbVertex
100
AcDbPolyFaceMeshVertex
 10
-0.2024214863777161
 20
0.3231236934661865
 30
-0.0025154317263514
 70
   192
  0
VERTEX
  5
320
330
28C
100
AcDbEntity
  8
0
 62
     9
100
AcDbVertex
100
AcDbPolyFaceMeshVertex
 10
-0.2008598744869232
 20
0.3240995109081268
 30
0.0006740079261363
 70
   192
  0
VERTEX
  5
321
330
28C
100
AcDbEntity
  8
0
 62
     9
100
AcDbVertex
100
AcDbPolyFaceMeshVertex
 10
-0.2010805010795593
 20
0.3239616453647614
 30
0.0013020833721384
 70
   192
  0
VERTEX
  5
322
330
28C
100
AcDbEntity
  8
0
 62
     9
100
AcDbVertex
100
AcDbPolyFaceMeshVertex
 10
-0.201431468129158
 20
0.3237423300743103
 30
0.0018414239166304
 70
   192
  0
VERTEX
  5
323
330
28C
100
AcDbEntity
  8
0
 62
     9
100
AcDbVertex
100
AcDbPolyFaceMeshVertex
 10
-0.201888844370842
 20
0.3234565258026123
 30
0.0022552744485438
 70
   192
  0
VERTEX
  5
324
330
28C
100
AcDbEntity
  8
0
 62
     9
100
AcDbVertex
100
AcDbPolyFaceMeshVertex
 10
-0.2024214863777161
 20
0.3231236934661865
 30
0.0025154317263514
 70
   192
  0
VERTEX
  5
325
330
28C
100
AcDbEntity
  8
0
 62
     9
100
AcDbVertex
100
AcDbPolyFaceMeshVertex
 10
-0.2029930800199509
 20
0.3227665424346924
 30
0.0026041667442769
 70
   192
  0
VERTEX
  5
326
330
28C
100
AcDbEntity
  8
0
 62
     9
100
AcDbVertex
100
AcDbPolyFaceMeshVertex
 10
-0.2035646736621857
 20
0.3224093616008759
 30
0.0025154317263514
 70
   192
  0
VERTEX
  5
327
330
28C
100
AcDbEntity
  8
0
 62
     9
100
AcDbVertex
100
AcDbPolyFaceMeshVertex
 10
-0.2040973156690598
 20
0.3220765292644501
 30
0.0022552744485438
 70
   192
  0
VERTEX
  5
328
330
28C
100
AcDbEntity
  8
0
 62
     9
100
AcDbVertex
100
AcDbPolyFaceMeshVertex
 10
-0.2045546919107437
 20
0.3217907249927521
 30
0.0018414239166304
 70
   192
  0
VERTEX
  5
329
330
28C
100
AcDbEntity
  8
0
 62
     9
100
AcDbVertex
100
AcDbPolyFaceMeshVertex
 10
-0.2049056589603424
 20
0.321571409702301
 30
0.0013020833721384
 70
   192
  0
VERTEX
  5
32A
330
28C
100
AcDbEntity
  8
0
 62
     9
100
AcDbVertex
100
AcDbPolyFaceMeshVertex
 10
-0.2051262855529785
 20
0.3214335441589355
 30
0.0006740079261363
 70
   192
  0
VERTEX
  5
32B
330
28C
100
AcDbEntity
  8
0
 62
     9
100
AcDbVertex
100
AcDbPolyFaceMeshVertex
 10
-0.2052015364170074
 20
0.3213865458965302
 30
0.0000000000000329
 70
   192
  0
VERTEX
  5
32C
330
28C
100
AcDbEntity
  8
0
 62
     9
100
AcDbVertex
100
AcDbPolyFaceMeshVertex
 10
-0.0192486084997654
 20
0.0237996391952038
 30
0.000000000000028
 70
   192
  0
VERTEX
  5
32D
330
28C
100
AcDbEntity
  8
0
 62
     9
100
AcDbVertex
100
AcDbPolyFaceMeshVertex
 10
-0.0191733576357365
 20
0.0238466616719961
 30
0.0006740079261363
 70
   192
  0
VERTEX
  5
32E
330
28C
100
AcDbEntity
  8
0
 62
     9
100
AcDbVertex
100
AcDbPolyFaceMeshVertex
 10
-0.0189527310431004
 20
0.0239845234900713
 30
0.0013020833721384
 70
   192
  0
VERTEX
  5
32F
330
28C
100
AcDbEntity
  8
0
 62
     9
100
AcDbVertex
100
AcDbPolyFaceMeshVertex
 10
-0.0186017658561468
 20
0.0242038313299417
 30
0.0018414239166304
 70
   192
  0
VERTEX
  5
330
330
28C
100
AcDbEntity
  8
0
 62
     9
100
AcDbVertex
100
AcDbPolyFaceMeshVertex
 10
-0.018144378438592
 20
0.0244896374642849
 30
0.0022552744485438
 70
   192
  0
VERTEX
  5
331
330
28C
100
AcDbEntity
  8
0
 62
     9
100
AcDbVertex
100
AcDbPolyFaceMeshVertex
 10
-0.0176117401570082
 20
0.0248224679380655
 30
0.0025154317263514
 70
   192
  0
VERTEX
  5
332
330
28C
100
AcDbEntity
  8
0
 62
     9
100
AcDbVertex
100
AcDbPolyFaceMeshVertex
 10
-0.0170401502400637
 20
0.0251796375960112
 30
0.0026041667442769
 70
   192
  0
VERTEX
  5
333
330
28C
100
AcDbEntity
  8
0
 62
     9
100
AcDbVertex
100
AcDbPolyFaceMeshVertex
 10
-0.016468558460474
 20
0.0255368072539568
 30
0.0025154317263514
 70
   192
  0
VERTEX
  5
334
330
28C
100
AcDbEntity
  8
0
 62
     9
100
AcDbVertex
100
AcDbPolyFaceMeshVertex
 10
-0.0159359201788902
 20
0.0258696358650923
 30
0.0022552744485438
 70
   192
  0
VERTEX
  5
335
330
28C
100
AcDbEntity
  8
0
 62
     9
100
AcDbVertex
100
AcDbPolyFaceMeshVertex
 10
-0.0154785336926579
 20
0.0261554438620806
 30
0.0018414239166304
 70
   192
  0
VERTEX
  5
336
330
28C
100
AcDbEntity
  8
0
 62
     9
100
AcDbVertex
100
AcDbPolyFaceMeshVertex
 10
-0.0151275685057044
 20
0.0263747498393059
 30
0.0013020833721384
 70
   192
  0
VERTEX
  5
337
330
28C
100
AcDbEntity
  8
0
 62
     9
100
AcDbVertex
100
AcDbPolyFaceMeshVertex
 10
-0.0149069428443909
 20
0.0265126135200262
 30
0.0006740079261363
 70
   192
  0
VERTEX
  5
338
330
28C
100
AcDbEntity
  8
0
 62
     9
100
AcDbVertex
100
AcDbPolyFaceMeshVertex
 10
-0.0148316910490394
 20
0.0265596359968185
 30
0.000000000000028
 70
   192
  0
VERTEX
  5
339
330
28C
100
AcDbEntity
  8
0
 62
     9
100
AcDbVertex
100
AcDbPolyFaceMeshVertex
 10
-0.2007846236228943
 20
0.3241465389728546
 30
0.0000000000000328
 70
   192
  0
VERTEX
  5
33A
330
28C
100
AcDbEntity
  8
0
 62
     9
100
AcDbVertex
100
AcDbPolyFaceMeshVertex
 10
-0.2051262855529785
 20
0.3214335441589355
 30
-0.0006740079261363
 70
   192
  0
VERTEX
  5
33B
330
28C
100
AcDbEntity
  8
0
 62
     9
100
AcDbVertex
100
AcDbPolyFaceMeshVertex
 10
-0.2049056589603424
 20
0.321571409702301
 30
-0.0013020833721384
 70
   192
  0
VERTEX
  5
33C
330
28C
100
AcDbEntity
  8
0
 62
     9
100
AcDbVertex
100
AcDbPolyFaceMeshVertex
 10
-0.2045546919107437
 20
0.3217907249927521
 30
-0.0018414239166304
 70
   192
  0
VERTEX
  5
33D
330
28C
100
AcDbEntity
  8
0
 62
     9
100
AcDbVertex
100
AcDbPolyFaceMeshVertex
 10
-0.2040973156690598
 20
0.3220765292644501
 30
-0.0022552744485438
 70
   192
  0
VERTEX
  5
33E
330
28C
100
AcDbEntity
  8
0
 62
     9
100
AcDbVertex
100
AcDbPolyFaceMeshVertex
 10
-0.2035646736621857
 20
0.3224093616008759
 30
-0.0025154317263514
 70
   192
  0
VERTEX
  5
33F
330
28C
100
AcDbEntity
  8
0
 62
     9
100
AcDbVertex
100
AcDbPolyFaceMeshVertex
 10
-0.2029930800199509
 20
0.3227665424346924
 30
-0.0026041667442769
 70
   192
  0
VERTEX
  5
340
330
28C
100
AcDbEntity
  8
0
 62
     9
100
AcDbVertex
100
AcDbPolyFaceMeshVertex
 10
-0.2024214863777161
 20
0.3231236934661865
 30
-0.0025154317263514
 70
   192
  0
VERTEX
  5
341
330
28C
100
AcDbEntity
  8
0
 62
     9
100
AcDbVertex
100
AcDbPolyFaceMeshVertex
 10
-0.201888844370842
 20
0.3234565258026123
 30
-0.0022552744485438
 70
   192
  0
VERTEX
  5
342
330
28C
100
AcDbEntity
  8
0
 62
     9
100
AcDbVertex
100
AcDbPolyFaceMeshVertex
 10
-0.201431468129158
 20
0.3237423300743103
 30
-0.0018414239166304
 70
   192
  0
VERTEX
  5
343
330
28C
100
AcDbEntity
  8
0
 62
     9
100
AcDbVertex
100
AcDbPolyFaceMeshVertex
 10
-0.2010805010795593
 20
0.3239616453647614
 30
-0.0013020833721384
 70
   192
  0
VERTEX
  5
344
330
28C
100
AcDbEntity
  8
0
 62
     9
100
AcDbVertex
100
AcDbPolyFaceMeshVertex
 10
-0.2008598744869232
 20
0.3240995109081268
 30
-0.0006740079261363
 70
   192
  0
VERTEX
  5
345
330
28C
100
AcDbEntity
  8
0
 62
     9
100
AcDbVertex
100
AcDbPolyFaceMeshVertex
 10
-0.2007846236228943
 20
0.3241465389728546
 30
0.0000000000000328
 70
   192
  0
VERTEX
  5
346
330
28C
100
AcDbEntity
  8
0
 62
     9
100
AcDbVertex
100
AcDbPolyFaceMeshVertex
 10
-0.0148316910490394
 20
0.0265596359968185
 30
0.000000000000028
 70
   192
  0
VERTEX
  5
347
330
28C
100
AcDbEntity
  8
0
 62
     9
100
AcDbVertex
100
AcDbPolyFaceMeshVertex
 10
-0.0149069428443909
 20
0.0265126135200262
 30
-0.0006740079261363
 70
   192
  0
VERTEX
  5
348
330
28C
100
AcDbEntity
  8
0
 62
     9
100
AcDbVertex
100
AcDbPolyFaceMeshVertex
 10
-0.0151275685057044
 20
0.0263747498393059
 30
-0.0013020833721384
 70
   192
  0
VERTEX
  5
349
330
28C
100
AcDbEntity
  8
0
 62
     9
100
AcDbVertex
100
AcDbPolyFaceMeshVertex
 10
-0.0154785336926579
 20
0.0261554438620806
 30
-0.0018414239166304
 70
   192
  0
VERTEX
  5
34A
330
28C
100
AcDbEntity
  8
0
 62
     9
100
AcDbVertex
100
AcDbPolyFaceMeshVertex
 10
-0.0159359201788902
 20
0.0258696358650923
 30
-0.0022552744485438
 70
   192
  0
VERTEX
  5
34B
330
28C
100
AcDbEntity
  8
0
 62
     9
100
AcDbVertex
100
AcDbPolyFaceMeshVertex
 10
-0.016468558460474
 20
0.0255368072539568
 30
-0.0025154317263514
 70
   192
  0
VERTEX
  5
34C
330
28C
100
AcDbEntity
  8
0
 62
     9
100
AcDbVertex
100
AcDbPolyFaceMeshVertex
 10
-0.0170401502400637
 20
0.0251796375960112
 30
-0.0026041667442769
 70
   192
  0
VERTEX
  5
34D
330
28C
100
AcDbEntity
  8
0
 62
     9
100
AcDbVertex
100
AcDbPolyFaceMeshVertex
 10
-0.0176117401570082
 20
0.0248224679380655
 30
-0.0025154317263514
 70
   192
  0
VERTEX
  5
34E
330
28C
100
AcDbEntity
  8
0
 62
     9
100
AcDbVertex
100
AcDbPolyFaceMeshVertex
 10
-0.018144378438592
 20
0.0244896374642849
 30
-0.0022552744485438
 70
   192
  0
VERTEX
  5
34F
330
28C
100
AcDbEntity
  8
0
 62
     9
100
AcDbVertex
100
AcDbPolyFaceMeshVertex
 10
-0.0186017658561468
 20
0.0242038313299417
 30
-0.0018414239166304
 70
   192
  0
VERTEX
  5
350
330
28C
100
AcDbEntity
  8
0
 62
     9
100
AcDbVertex
100
AcDbPolyFaceMeshVertex
 10
-0.0189527310431004
 20
0.0239845234900713
 30
-0.0013020833721384
 70
   192
  0
VERTEX
  5
351
330
28C
100
AcDbEntity
  8
0
 62
     9
100
AcDbVertex
100
AcDbPolyFaceMeshVertex
 10
-0.0191733576357365
 20
0.0238466616719961
 30
-0.0006740079261363
 70
   192
  0
VERTEX
  5
352
330
28C
100
AcDbEntity
  8
0
 62
     9
100
AcDbVertex
100
AcDbPolyFaceMeshVertex
 10
-0.0192486084997654
 20
0.0237996391952038
 30
0.000000000000028
 70
   192
  0
VERTEX
  5
353
330
28C
100
AcDbEntity
  8
0
 62
     9
100
AcDbVertex
100
AcDbPolyFaceMeshVertex
 10
-0.2052015364170074
 20
0.3213865458965302
 30
0.0000000000000329
 70
   192
  0
VERTEX
  5
354
330
28C
100
AcDbEntity
  8
0
 62
     9
100
AcDbVertex
100
AcDbPolyFaceMeshVertex
 10
0.0293952692300081
 20
0.026713540777564
 30
-0.0022552744485438
 70
   192
  0
VERTEX
  5
355
330
28C
100
AcDbEntity
  8
0
 62
     9
100
AcDbVertex
100
AcDbPolyFaceMeshVertex
 10
0.029670599848032
 20
0.0261490307748318
 30
-0.0025154317263514
 70
   192
  0
VERTEX
  5
356
330
28C
100
AcDbEntity
  8
0
 62
     9
100
AcDbVertex
100
AcDbPolyFaceMeshVertex
 10
0.0299660656601191
 20
0.0255432352423668
 30
-0.0026041667442769
 70
   192
  0
VERTEX
  5
357
330
28C
100
AcDbEntity
  8
0
 62
     9
100
AcDbVertex
100
AcDbPolyFaceMeshVertex
 10
0.0302615314722061
 20
0.024937441572547
 30
-0.0025154317263514
 70
   192
  0
VERTEX
  5
358
330
28C
100
AcDbEntity
  8
0
 62
     9
100
AcDbVertex
100
AcDbPolyFaceMeshVertex
 10
0.03053686209023
 20
0.0243729315698147
 30
-0.0022552744485438
 70
   192
  0
VERTEX
  5
359
330
28C
100
AcDbEntity
  8
0
 62
     9
100
AcDbVertex
100
AcDbPolyFaceMeshVertex
 10
0.0307732932269573
 20
0.023888174444437
 30
-0.0018414239166304
 70
   192
  0
VERTEX
  5
35A
330
28C
100
AcDbEntity
  8
0
 62
     9
100
AcDbVertex
100
AcDbPolyFaceMeshVertex
 10
0.0309547130018473
 20
0.0235162079334259
 30
-0.0013020833721384
 70
   192
  0
VERTEX
  5
35B
330
28C
100
AcDbEntity
  8
0
 62
     9
100
AcDbVertex
100
AcDbPolyFaceMeshVertex
 10
0.0310687590390444
 20
0.0232823807746172
 30
-0.0006740079261363
 70
   192
  0
VERTEX
  5
35C
330
28C
100
AcDbEntity
  8
0
 62
     9
100
AcDbVertex
100
AcDbPolyFaceMeshVertex
 10
0.0311076566576958
 20
0.0232026260346174
 30
0.0000000000000283
 70
   192
  0
VERTEX
  5
35D
330
28C
100
AcDbEntity
  8
0
 62
     9
100
AcDbVertex
100
AcDbPolyFaceMeshVertex
 10
0.0310687590390444
 20
0.0232823807746172
 30
0.0006740079261363
 70
   192
  0
VERTEX
  5
35E
330
28C
100
AcDbEntity
  8
0
 62
     9
100
AcDbVertex
100
AcDbPolyFaceMeshVertex
 10
0.0309547130018473
 20
0.0235162079334259
 30
0.0013020833721384
 70
   192
  0
VERTEX
  5
35F
330
28C
100
AcDbEntity
  8
0
 62
     9
100
AcDbVertex
100
AcDbPolyFaceMeshVertex
 10
0.0307732932269573
 20
0.023888174444437
 30
0.0018414239166304
 70
   192
  0
VERTEX
  5
360
330
28C
100
AcDbEntity
  8
0
 62
     9
100
AcDbVertex
100
AcDbPolyFaceMeshVertex
 10
0.03053686209023
 20
0.0243729315698147
 30
0.0022552744485438
 70
   192
  0
VERTEX
  5
361
330
28C
100
AcDbEntity
  8
0
 62
     9
100
AcDbVertex
100
AcDbPolyFaceMeshVertex
 10
0.0302615314722061
 20
0.024937441572547
 30
0.0025154317263514
 70
   192
  0
VERTEX
  5
362
330
28C
100
AcDbEntity
  8
0
 62
     9
100
AcDbVertex
100
AcDbPolyFaceMeshVertex
 10
0.0299660656601191
 20
0.0255432352423668
 30
0.0026041667442769
 70
   192
  0
VERTEX
  5
363
330
28C
100
AcDbEntity
  8
0
 62
     9
100
AcDbVertex
100
AcDbPolyFaceMeshVertex
 10
0.029670599848032
 20
0.0261490307748318
 30
0.0025154317263514
 70
   192
  0
VERTEX
  5
364
330
28C
100
AcDbEntity
  8
0
 62
     9
100
AcDbVertex
100
AcDbPolyFaceMeshVertex
 10
0.0293952692300081
 20
0.026713540777564
 30
0.0022552744485438
 70
   192
  0
VERTEX
  5
365
330
28C
100
AcDbEntity
  8
0
 62
     9
100
AcDbVertex
100
AcDbPolyFaceMeshVertex
 10
0.0291588380932808
 20
0.0271982960402966
 30
0.0018414239166304
 70
   192
  0
VERTEX
  5
366
330
28C
100
AcDbEntity
  8
0
 62
     9
100
AcDbVertex
100
AcDbPolyFaceMeshVertex
 10
0.0289774183183908
 20
0.0275702625513077
 30
0.0013020833721384
 70
   192
  0
VERTEX
  5
367
330
28C
100
AcDbEntity
  8
0
 62
     9
100
AcDbVertex
100
AcDbPolyFaceMeshVertex
 10
0.0288633722811937
 20
0.0278040915727615
 30
0.0006740079261363
 70
   192
  0
VERTEX
  5
368
330
28C
100
AcDbEntity
  8
0
 62
     9
100
AcDbVertex
100
AcDbPolyFaceMeshVertex
 10
0.0288244746625423
 20
0.0278838444501162
 30
0.0000000000000283
 70
   192
  0
VERTEX
  5
369
330
28C
100
AcDbEntity
  8
0
 62
     9
100
AcDbVertex
100
AcDbPolyFaceMeshVertex
 10
0.0288633722811937
 20
0.0278040915727615
 30
-0.0006740079261363
 70
   192
  0
VERTEX
  5
36A
330
28C
100
AcDbEntity
  8
0
 62
     9
100
AcDbVertex
100
AcDbPolyFaceMeshVertex
 10
0.0289774183183908
 20
0.0275702625513077
 30
-0.0013020833721384
 70
   192
  0
VERTEX
  5
36B
330
28C
100
AcDbEntity
  8
0
 62
     9
100
AcDbVertex
100
AcDbPolyFaceMeshVertex
 10
0.0291588380932808
 20
0.0271982960402966
 30
-0.0018414239166304
 70
   192
  0
VERTEX
  5
36C
330
28C
100
AcDbEntity
  8
0
 62
     9
100
AcDbVertex
100
AcDbPolyFaceMeshVertex
 10
0.3225398063659668
 20
0.1682409793138504
 30
-0.0026041667442769
 70
   192
  0
VERTEX
  5
36D
330
28C
100
AcDbEntity
  8
0
 62
     9
100
AcDbVertex
100
AcDbPolyFaceMeshVertex
 10
0.3222443461418152
 20
0.1688467711210251
 30
-0.0025154317263514
 70
   192
  0
VERTEX
  5
36E
330
28C
100
AcDbEntity
  8
0
 62
     9
100
AcDbVertex
100
AcDbPolyFaceMeshVertex
 10
0.3219690024852753
 20
0.1694112867116928
 30
-0.0022552744485438
 70
   192
  0
VERTEX
  5
36F
330
28C
100
AcDbEntity
  8
0
 62
     9
100
AcDbVertex
100
AcDbPolyFaceMeshVertex
 10
0.3217325806617737
 20
0.1698960512876511
 30
-0.0018414239166304
 70
   192
  0
VERTEX
  5
370
330
28C
100
AcDbEntity
  8
0
 62
     9
100
AcDbVertex
100
AcDbPolyFaceMeshVertex
 10
0.3215511441230774
 20
0.1702680140733719
 30
-0.0013020833721384
 70
   192
  0
VERTEX
  5
371
330
28C
100
AcDbEntity
  8
0
 62
     9
100
AcDbVertex
100
AcDbPolyFaceMeshVertex
 10
0.3214371204376221
 20
0.1705018430948257
 30
-0.0006740079261363
 70
   192
  0
VERTEX
  5
372
330
28C
100
AcDbEntity
  8
0
 62
     9
100
AcDbVertex
100
AcDbPolyFaceMeshVertex
 10
0.3213982284069061
 20
0.1705815941095352
 30
0.0000000000000329
 70
   192
  0
VERTEX
  5
373
330
28C
100
AcDbEntity
  8
0
 62
     9
100
AcDbVertex
100
AcDbPolyFaceMeshVertex
 10
0.3214371204376221
 20
0.1705018430948257
 30
0.0006740079261363
 70
   192
  0
VERTEX
  5
374
330
28C
100
AcDbEntity
  8
0
 62
     9
100
AcDbVertex
100
AcDbPolyFaceMeshVertex
 10
0.3215511441230774
 20
0.1702680140733719
 30
0.0013020833721384
 70
   192
  0
VERTEX
  5
375
330
28C
100
AcDbEntity
  8
0
 62
     9
100
AcDbVertex
100
AcDbPolyFaceMeshVertex
 10
0.3217325806617737
 20
0.1698960512876511
 30
0.0018414239166304
 70
   192
  0
VERTEX
  5
376
330
28C
100
AcDbEntity
  8
0
 62
     9
100
AcDbVertex
100
AcDbPolyFaceMeshVertex
 10
0.3219690024852753
 20
0.1694112867116928
 30
0.0022552744485438
 70
   192
  0
VERTEX
  5
377
330
28C
100
AcDbEntity
  8
0
 62
     9
100
AcDbVertex
100
AcDbPolyFaceMeshVertex
 10
0.3222443461418152
 20
0.1688467711210251
 30
0.0025154317263514
 70
   192
  0
VERTEX
  5
378
330
28C
100
AcDbEntity
  8
0
 62
     9
100
AcDbVertex
100
AcDbPolyFaceMeshVertex
 10
0.3225398063659668
 20
0.1682409793138504
 30
0.0026041667442769
 70
   192
  0
VERTEX
  5
379
330
28C
100
AcDbEntity
  8
0
 62
     9
100
AcDbVertex
100
AcDbPolyFaceMeshVertex
 10
0.3228352665901184
 20
0.1676351875066757
 30
0.0025154317263514
 70
   192
  0
VERTEX
  5
37A
330
28C
100
AcDbEntity
  8
0
 62
     9
100
AcDbVertex
100
AcDbPolyFaceMeshVertex
 10
0.3231106102466583
 20
0.167070671916008
 30
0.0022552744485438
 70
   192
  0
VERTEX
  5
37B
330
28C
100
AcDbEntity
  8
0
 62
     9
100
AcDbVertex
100
AcDbPolyFaceMeshVertex
 10
0.3233470320701599
 20
0.1665859222412109
 30
0.0018414239166304
 70
   192
  0
VERTEX
  5
37C
330
28C
100
AcDbEntity
  8
0
 62
     9
100
AcDbVertex
100
AcDbPolyFaceMeshVertex
 10
0.3235284388065338
 20
0.1662139594554901
 30
0.0013020833721384
 70
   192
  0
VERTEX
  5
37D
330
28C
100
AcDbEntity
  8
0
 62
     9
100
AcDbVertex
100
AcDbPolyFaceMeshVertex
 10
0.3236424922943115
 20
0.1659801304340363
 30
0.0006740079261363
 70
   192
  0
VERTEX
  5
37E
330
28C
100
AcDbEntity
  8
0
 62
     9
100
AcDbVertex
100
AcDbPolyFaceMeshVertex
 10
0.3236813843250275
 20
0.1659003794193268
 30
0.0000000000000328
 70
   192
  0
VERTEX
  5
37F
330
28C
100
AcDbEntity
  8
0
 62
     9
100
AcDbVertex
100
AcDbPolyFaceMeshVertex
 10
0.3236424922943115
 20
0.1659801304340363
 30
-0.0006740079261363
 70
   192
  0
VERTEX
  5
380
330
28C
100
AcDbEntity
  8
0
 62
     9
100
AcDbVertex
100
AcDbPolyFaceMeshVertex
 10
0.3235284388065338
 20
0.1662139594554901
 30
-0.0013020833721384
 70
   192
  0
VERTEX
  5
381
330
28C
100
AcDbEntity
  8
0
 62
     9
100
AcDbVertex
100
AcDbPolyFaceMeshVertex
 10
0.3233470320701599
 20
0.1665859222412109
 30
-0.0018414239166304
 70
   192
  0
VERTEX
  5
382
330
28C
100
AcDbEntity
  8
0
 62
     9
100
AcDbVertex
100
AcDbPolyFaceMeshVertex
 10
0.3231106102466583
 20
0.167070671916008
 30
-0.0022552744485438
 70
   192
  0
VERTEX
  5
383
330
28C
100
AcDbEntity
  8
0
 62
     9
100
AcDbVertex
100
AcDbPolyFaceMeshVertex
 10
0.3228352665901184
 20
0.1676351875066757
 30
-0.0025154317263514
 70
   192
  0
VERTEX
  5
384
330
28C
100
AcDbEntity
  8
0
 62
     9
100
AcDbVertex
100
AcDbPolyFaceMeshVertex
 10
0.3236424922943115
 20
0.1659801304340363
 30
0.0006740079261363
 70
   192
  0
VERTEX
  5
385
330
28C
100
AcDbEntity
  8
0
 62
     9
100
AcDbVertex
100
AcDbPolyFaceMeshVertex
 10
0.3235284388065338
 20
0.1662139594554901
 30
0.0013020833721384
 70
   192
  0
VERTEX
  5
386
330
28C
100
AcDbEntity
  8
0
 62
     9
100
AcDbVertex
100
AcDbPolyFaceMeshVertex
 10
0.3233470320701599
 20
0.1665859222412109
 30
0.0018414239166304
 70
   192
  0
VERTEX
  5
387
330
28C
100
AcDbEntity
  8
0
 62
     9
100
AcDbVertex
100
AcDbPolyFaceMeshVertex
 10
0.3231106102466583
 20
0.167070671916008
 30
0.0022552744485438
 70
   192
  0
VERTEX
  5
388
330
28C
100
AcDbEntity
  8
0
 62
     9
100
AcDbVertex
100
AcDbPolyFaceMeshVertex
 10
0.3228352665901184
 20
0.1676351875066757
 30
0.0025154317263514
 70
   192
  0
VERTEX
  5
389
330
28C
100
AcDbEntity
  8
0
 62
     9
100
AcDbVertex
100
AcDbPolyFaceMeshVertex
 10
0.3225398063659668
 20
0.1682409793138504
 30
0.0026041667442769
 70
   192
  0
VERTEX
  5
38A
330
28C
100
AcDbEntity
  8
0
 62
     9
100
AcDbVertex
100
AcDbPolyFaceMeshVertex
 10
0.3222443461418152
 20
0.1688467711210251
 30
0.0025154317263514
 70
   192
  0
VERTEX
  5
38B
330
28C
100
AcDbEntity
  8
0
 62
     9
100
AcDbVertex
100
AcDbPolyFaceMeshVertex
 10
0.3219690024852753
 20
0.1694112867116928
 30
0.0022552744485438
 70
   192
  0
VERTEX
  5
38C
330
28C
100
AcDbEntity
  8
0
 62
     9
100
AcDbVertex
100
AcDbPolyFaceMeshVertex
 10
0.3217325806617737
 20
0.1698960512876511
 30
0.0018414239166304
 70
   192
  0
VERTEX
  5
38D
330
28C
100
AcDbEntity
  8
0
 62
     9
100
AcDbVertex
100
AcDbPolyFaceMeshVertex
 10
0.3215511441230774
 20
0.1702680140733719
 30
0.0013020833721384
 70
   192
  0
VERTEX
  5
38E
330
28C
100
AcDbEntity
  8
0
 62
     9
100
AcDbVertex
100
AcDbPolyFaceMeshVertex
 10
0.3214371204376221
 20
0.1705018430948257
 30
0.0006740079261363
 70
   192
  0
VERTEX
  5
38F
330
28C
100
AcDbEntity
  8
0
 62
     9
100
AcDbVertex
100
AcDbPolyFaceMeshVertex
 10
0.3213982284069061
 20
0.1705815941095352
 30
0.0000000000000329
 70
   192
  0
VERTEX
  5
390
330
28C
100
AcDbEntity
  8
0
 62
     9
100
AcDbVertex
100
AcDbPolyFaceMeshVertex
 10
0.0288244746625423
 20
0.0278838444501162
 30
0.0000000000000284
 70
   192
  0
VERTEX
  5
391
330
28C
100
AcDbEntity
  8
0
 62
     9
100
AcDbVertex
100
AcDbPolyFaceMeshVertex
 10
0.0288633722811937
 20
0.0278040915727615
 30
0.0006740079261363
 70
   192
  0
VERTEX
  5
392
330
28C
100
AcDbEntity
  8
0
 62
     9
100
AcDbVertex
100
AcDbPolyFaceMeshVertex
 10
0.0289774183183908
 20
0.0275702625513077
 30
0.0013020833721384
 70
   192
  0
VERTEX
  5
393
330
28C
100
AcDbEntity
  8
0
 62
     9
100
AcDbVertex
100
AcDbPolyFaceMeshVertex
 10
0.0291588380932808
 20
0.0271982960402966
 30
0.0018414239166304
 70
   192
  0
VERTEX
  5
394
330
28C
100
AcDbEntity
  8
0
 62
     9
100
AcDbVertex
100
AcDbPolyFaceMeshVertex
 10
0.0293952692300081
 20
0.026713540777564
 30
0.0022552744485438
 70
   192
  0
VERTEX
  5
395
330
28C
100
AcDbEntity
  8
0
 62
     9
100
AcDbVertex
100
AcDbPolyFaceMeshVertex
 10
0.029670599848032
 20
0.0261490307748318
 30
0.0025154317263514
 70
   192
  0
VERTEX
  5
396
330
28C
100
AcDbEntity
  8
0
 62
     9
100
AcDbVertex
100
AcDbPolyFaceMeshVertex
 10
0.0299660656601191
 20
0.0255432352423668
 30
0.0026041667442769
 70
   192
  0
VERTEX
  5
397
330
28C
100
AcDbEntity
  8
0
 62
     9
100
AcDbVertex
100
AcDbPolyFaceMeshVertex
 10
0.0302615314722061
 20
0.024937441572547
 30
0.0025154317263514
 70
   192
  0
VERTEX
  5
398
330
28C
100
AcDbEntity
  8
0
 62
     9
100
AcDbVertex
100
AcDbPolyFaceMeshVertex
 10
0.03053686209023
 20
0.0243729315698147
 30
0.0022552744485438
 70
   192
  0
VERTEX
  5
399
330
28C
100
AcDbEntity
  8
0
 62
     9
100
AcDbVertex
100
AcDbPolyFaceMeshVertex
 10
0.0307732932269573
 20
0.023888174444437
 30
0.0018414239166304
 70
   192
  0
VERTEX
  5
39A
330
28C
100
AcDbEntity
  8
0
 62
     9
100
AcDbVertex
100
AcDbPolyFaceMeshVertex
 10
0.0309547130018473
 20
0.0235162079334259
 30
0.0013020833721384
 70
   192
  0
VERTEX
  5
39B
330
28C
100
AcDbEntity
  8
0
 62
     9
100
AcDbVertex
100
AcDbPolyFaceMeshVertex
 10
0.0310687590390444
 20
0.0232823807746172
 30
0.0006740079261363
 70
   192
  0
VERTEX
  5
39C
330
28C
100
AcDbEntity
  8
0
 62
     9
100
AcDbVertex
100
AcDbPolyFaceMeshVertex
 10
0.0311076566576958
 20
0.0232026260346174
 30
0.0000000000000283
 70
   192
  0
VERTEX
  5
39D
330
28C
100
AcDbEntity
  8
0
 62
     9
100
AcDbVertex
100
AcDbPolyFaceMeshVertex
 10
0.3236813843250275
 20
0.1659003794193268
 30
0.0000000000000328
 70
   192
  0
VERTEX
  5
39E
330
28C
100
AcDbEntity
  8
0
 62
     9
100
AcDbVertex
100
AcDbPolyFaceMeshVertex
 10
0.3214371204376221
 20
0.1705018430948257
 30
-0.0006740079261363
 70
   192
  0
VERTEX
  5
39F
330
28C
100
AcDbEntity
  8
0
 62
     9
100
AcDbVertex
100
AcDbPolyFaceMeshVertex
 10
0.3215511441230774
 20
0.1702680140733719
 30
-0.0013020833721384
 70
   192
  0
VERTEX
  5
3A0
330
28C
100
AcDbEntity
  8
0
 62
     9
100
AcDbVertex
100
AcDbPolyFaceMeshVertex
 10
0.3217325806617737
 20
0.1698960512876511
 30
-0.0018414239166304
 70
   192
  0
VERTEX
  5
3A1
330
28C
100
AcDbEntity
  8
0
 62
     9
100
AcDbVertex
100
AcDbPolyFaceMeshVertex
 10
0.3219690024852753
 20
0.1694112867116928
 30
-0.0022552744485438
 70
   192
  0
VERTEX
  5
3A2
330
28C
100
AcDbEntity
  8
0
 62
     9
100
AcDbVertex
100
AcDbPolyFaceMeshVertex
 10
0.3222443461418152
 20
0.1688467711210251
 30
-0.0025154317263514
 70
   192
  0
VERTEX
  5
3A3
330
28C
100
AcDbEntity
  8
0
 62
     9
100
AcDbVertex
100
AcDbPolyFaceMeshVertex
 10
0.3225398063659668
 20
0.1682409793138504
 30
-0.0026041667442769
 70
   192
  0
VERTEX
  5
3A4
330
28C
100
AcDbEntity
  8
0
 62
     9
100
AcDbVertex
100
AcDbPolyFaceMeshVertex
 10
0.3228352665901184
 20
0.1676351875066757
 30
-0.0025154317263514
 70
   192
  0
VERTEX
  5
3A5
330
28C
100
AcDbEntity
  8
0
 62
     9
100
AcDbVertex
100
AcDbPolyFaceMeshVertex
 10
0.3231106102466583
 20
0.167070671916008
 30
-0.0022552744485438
 70
   192
  0
VERTEX
  5
3A6
330
28C
100
AcDbEntity
  8
0
 62
     9
100
AcDbVertex
100
AcDbPolyFaceMeshVertex
 10
0.3233470320701599
 20
0.1665859222412109
 30
-0.0018414239166304
 70
   192
  0
VERTEX
  5
3A7
330
28C
100
AcDbEntity
  8
0
 62
     9
100
AcDbVertex
100
AcDbPolyFaceMeshVertex
 10
0.3235284388065338
 20
0.1662139594554901
 30
-0.0013020833721384
 70
   192
  0
VERTEX
  5
3A8
330
28C
100
AcDbEntity
  8
0
 62
     9
100
AcDbVertex
100
AcDbPolyFaceMeshVertex
 10
0.3236424922943115
 20
0.1659801304340363
 30
-0.0006740079261363
 70
   192
  0
VERTEX
  5
3A9
330
28C
100
AcDbEntity
  8
0
 62
     9
100
AcDbVertex
100
AcDbPolyFaceMeshVertex
 10
0.3236813843250275
 20
0.1659003794193268
 30
0.0000000000000328
 70
   192
  0
VERTEX
  5
3AA
330
28C
100
AcDbEntity
  8
0
 62
     9
100
AcDbVertex
100
AcDbPolyFaceMeshVertex
 10
0.0310687590390444
 20
0.0232823807746172
 30
-0.0006740079261363
 70
   192
  0
VERTEX
  5
3AB
330
28C
100
AcDbEntity
  8
0
 62
     9
100
AcDbVertex
100
AcDbPolyFaceMeshVertex
 10
0.0309547130018473
 20
0.0235162079334259
 30
-0.0013020833721384
 70
   192
  0
VERTEX
  5
3AC
330
28C
100
AcDbEntity
  8
0
 62
     9
100
AcDbVertex
100
AcDbPolyFaceMeshVertex
 10
0.0307732932269573
 20
0.023888174444437
 30
-0.0018414239166304
 70
   192
  0
VERTEX
  5
3AD
330
28C
100
AcDbEntity
  8
0
 62
     9
100
AcDbVertex
100
AcDbPolyFaceMeshVertex
 10
0.03053686209023
 20
0.0243729315698147
 30
-0.0022552744485438
 70
   192
  0
VERTEX
  5
3AE
330
28C
100
AcDbEntity
  8
0
 62
     9
100
AcDbVertex
100
AcDbPolyFaceMeshVertex
 10
0.0302615314722061
 20
0.024937441572547
 30
-0.0025154317263514
 70
   192
  0
VERTEX
  5
3AF
330
28C
100
AcDbEntity
  8
0
 62
     9
100
AcDbVertex
100
AcDbPolyFaceMeshVertex
 10
0.0299660656601191
 20
0.0255432352423668
 30
-0.0026041667442769
 70
   192
  0
VERTEX
  5
3B0
330
28C
100
AcDbEntity
  8
0
 62
     9
100
AcDbVertex
100
AcDbPolyFaceMeshVertex
 10
0.029670599848032
 20
0.0261490307748318
 30
-0.0025154317263514
 70
   192
  0
VERTEX
  5
3B1
330
28C
100
AcDbEntity
  8
0
 62
     9
100
AcDbVertex
100
AcDbPolyFaceMeshVertex
 10
0.0293952692300081
 20
0.026713540777564
 30
-0.0022552744485438
 70
   192
  0
VERTEX
  5
3B2
330
28C
100
AcDbEntity
  8
0
 62
     9
100
AcDbVertex
100
AcDbPolyFaceMeshVertex
 10
0.0291588380932808
 20
0.0271982960402966
 30
-0.0018414239166304
 70
   192
  0
VERTEX
  5
3B3
330
28C
100
AcDbEntity
  8
0
 62
     9
100
AcDbVertex
100
AcDbPolyFaceMeshVertex
 10
0.0289774183183908
 20
0.0275702625513077
 30
-0.0013020833721384
 70
   192
  0
VERTEX
  5
3B4
330
28C
100
AcDbEntity
  8
0
 62
     9
100
AcDbVertex
100
AcDbPolyFaceMeshVertex
 10
0.0288633722811937
 20
0.0278040915727615
 30
-0.0006740079261363
 70
   192
  0
VERTEX
  5
3B5
330
28C
100
AcDbEntity
  8
0
 62
     9
100
AcDbVertex
100
AcDbPolyFaceMeshVertex
 10
0.0288244746625423
 20
0.0278838444501162
 30
0.0000000000000283
 70
   192
  0
VERTEX
  5
3B6
330
28C
100
AcDbEntity
  8
0
 62
     9
100
AcDbVertex
100
AcDbPolyFaceMeshVertex
 10
0.3213982284069061
 20
0.1705815941095352
 30
0.0000000000000328
 70
   192
  0
VERTEX
  5
3B7
330
28C
100
AcDbEntity
  8
0
 62
     9
100
AcDbVertex
100
AcDbPolyFaceMeshVertex
 10
0.016468558460474
 20
0.0255368072539568
 30
-0.0025154317263514
 70
   192
  0
VERTEX
  5
3B8
330
28C
100
AcDbEntity
  8
0
 62
     9
100
AcDbVertex
100
AcDbPolyFaceMeshVertex
 10
0.0170401502400637
 20
0.0251796375960112
 30
-0.0026041667442769
 70
   192
  0
VERTEX
  5
3B9
330
28C
100
AcDbEntity
  8
0
 62
     9
100
AcDbVertex
100
AcDbPolyFaceMeshVertex
 10
0.0176117401570082
 20
0.0248224679380655
 30
-0.0025154317263514
 70
   192
  0
VERTEX
  5
3BA
330
28C
100
AcDbEntity
  8
0
 62
     9
100
AcDbVertex
100
AcDbPolyFaceMeshVertex
 10
0.018144378438592
 20
0.0244896374642849
 30
-0.0022552744485438
 70
   192
  0
VERTEX
  5
3BB
330
28C
100
AcDbEntity
  8
0
 62
     9
100
AcDbVertex
100
AcDbPolyFaceMeshVertex
 10
0.0186017658561468
 20
0.0242038313299417
 30
-0.0018414239166304
 70
   192
  0
VERTEX
  5
3BC
330
28C
100
AcDbEntity
  8
0
 62
     9
100
AcDbVertex
100
AcDbPolyFaceMeshVertex
 10
0.0189527310431004
 20
0.0239845234900713
 30
-0.0013020833721384
 70
   192
  0
VERTEX
  5
3BD
330
28C
100
AcDbEntity
  8
0
 62
     9
100
AcDbVertex
100
AcDbPolyFaceMeshVertex
 10
0.0191733576357365
 20
0.0238466616719961
 30
-0.0006740079261363
 70
   192
  0
VERTEX
  5
3BE
330
28C
100
AcDbEntity
  8
0
 62
     9
100
AcDbVertex
100
AcDbPolyFaceMeshVertex
 10
0.0192486084997654
 20
0.0237996391952038
 30
0.000000000000028
 70
   192
  0
VERTEX
  5
3BF
330
28C
100
AcDbEntity
  8
0
 62
     9
100
AcDbVertex
100
AcDbPolyFaceMeshVertex
 10
0.0191733576357365
 20
0.0238466616719961
 30
0.0006740079261363
 70
   192
  0
VERTEX
  5
3C0
330
28C
100
AcDbEntity
  8
0
 62
     9
100
AcDbVertex
100
AcDbPolyFaceMeshVertex
 10
0.0189527310431004
 20
0.0239845234900713
 30
0.0013020833721384
 70
   192
  0
VERTEX
  5
3C1
330
28C
100
AcDbEntity
  8
0
 62
     9
100
AcDbVertex
100
AcDbPolyFaceMeshVertex
 10
0.0186017658561468
 20
0.0242038313299417
 30
0.0018414239166304
 70
   192
  0
VERTEX
  5
3C2
330
28C
100
AcDbEntity
  8
0
 62
     9
100
AcDbVertex
100
AcDbPolyFaceMeshVertex
 10
0.018144378438592
 20
0.0244896374642849
 30
0.0022552744485438
 70
   192
  0
VERTEX
  5
3C3
330
28C
100
AcDbEntity
  8
0
 62
     9
100
AcDbVertex
100
AcDbPolyFaceMeshVertex
 10
0.0176117401570082
 20
0.0248224679380655
 30
0.0025154317263514
 70
   192
  0
VERTEX
  5
3C4
330
28C
100
AcDbEntity
  8
0
 62
     9
100
AcDbVertex
100
AcDbPolyFaceMeshVertex
 10
0.0170401502400637
 20
0.0251796375960112
 30
0.0026041667442769
 70
   192
  0
VERTEX
  5
3C5
330
28C
100
AcDbEntity
  8
0
 62
     9
100
AcDbVertex
100
AcDbPolyFaceMeshVertex
 10
0.016468558460474
 20
0.0255368072539568
 30
0.0025154317263514
 70
   192
  0
VERTEX
  5
3C6
330
28C
100
AcDbEntity
  8
0
 62
     9
100
AcDbVertex
100
AcDbPolyFaceMeshVertex
 10
0.0159359201788902
 20
0.0258696358650923
 30
0.0022552744485438
 70
   192
  0
VERTEX
  5
3C7
330
28C
100
AcDbEntity
  8
0
 62
     9
100
AcDbVertex
100
AcDbPolyFaceMeshVertex
 10
0.0154785336926579
 20
0.0261554438620806
 30
0.0018414239166304
 70
   192
  0
VERTEX
  5
3C8
330
28C
100
AcDbEntity
  8
0
 62
     9
100
AcDbVertex
100
AcDbPolyFaceMeshVertex
 10
0.0151275685057044
 20
0.0263747498393059
 30
0.0013020833721384
 70
   192
  0
VERTEX
  5
3C9
330
28C
100
AcDbEntity
  8
0
 62
     9
100
AcDbVertex
100
AcDbPolyFaceMeshVertex
 10
0.0149069428443909
 20
0.0265126135200262
 30
0.0006740079261363
 70
   192
  0
VERTEX
  5
3CA
330
28C
100
AcDbEntity
  8
0
 62
     9
100
AcDbVertex
100
AcDbPolyFaceMeshVertex
 10
0.0148316910490394
 20
0.0265596359968185
 30
0.000000000000028
 70
   192
  0
VERTEX
  5
3CB
330
28C
100
AcDbEntity
  8
0
 62
     9
100
AcDbVertex
100
AcDbPolyFaceMeshVertex
 10
0.0149069428443909
 20
0.0265126135200262
 30
-0.0006740079261363
 70
   192
  0
VERTEX
  5
3CC
330
28C
100
AcDbEntity
  8
0
 62
     9
100
AcDbVertex
100
AcDbPolyFaceMeshVertex
 10
0.0151275685057044
 20
0.0263747498393059
 30
-0.0013020833721384
 70
   192
  0
VERTEX
  5
3CD
330
28C
100
AcDbEntity
  8
0
 62
     9
100
AcDbVertex
100
AcDbPolyFaceMeshVertex
 10
0.0154785336926579
 20
0.0261554438620806
 30
-0.0018414239166304
 70
   192
  0
VERTEX
  5
3CE
330
28C
100
AcDbEntity
  8
0
 62
     9
100
AcDbVertex
100
AcDbPolyFaceMeshVertex
 10
0.0159359201788902
 20
0.0258696358650923
 30
-0.0022552744485438
 70
   192
  0
VERTEX
  5
3CF
330
28C
100
AcDbEntity
  8
0
 62
     9
100
AcDbVertex
100
AcDbPolyFaceMeshVertex
 10
0.2029930800199509
 20
0.3227665424346924
 30
-0.0026041667442769
 70
   192
  0
VERTEX
  5
3D0
330
28C
100
AcDbEntity
  8
0
 62
     9
100
AcDbVertex
100
AcDbPolyFaceMeshVertex
 10
0.2024214863777161
 20
0.3231236934661865
 30
-0.0025154317263514
 70
   192
  0
VERTEX
  5
3D1
330
28C
100
AcDbEntity
  8
0
 62
     9
100
AcDbVertex
100
AcDbPolyFaceMeshVertex
 10
0.201888844370842
 20
0.3234565258026123
 30
-0.0022552744485438
 70
   192
  0
VERTEX
  5
3D2
330
28C
100
AcDbEntity
  8
0
 62
     9
100
AcDbVertex
100
AcDbPolyFaceMeshVertex
 10
0.201431468129158
 20
0.3237423300743103
 30
-0.0018414239166304
 70
   192
  0
VERTEX
  5
3D3
330
28C
100
AcDbEntity
  8
0
 62
     9
100
AcDbVertex
100
AcDbPolyFaceMeshVertex
 10
0.2010805010795593
 20
0.3239616453647614
 30
-0.0013020833721384
 70
   192
  0
VERTEX
  5
3D4
330
28C
100
AcDbEntity
  8
0
 62
     9
100
AcDbVertex
100
AcDbPolyFaceMeshVertex
 10
0.2008598744869232
 20
0.3240995109081268
 30
-0.0006740079261363
 70
   192
  0
VERTEX
  5
3D5
330
28C
100
AcDbEntity
  8
0
 62
     9
100
AcDbVertex
100
AcDbPolyFaceMeshVertex
 10
0.2007846236228943
 20
0.3241465389728546
 30
0.0000000000000329
 70
   192
  0
VERTEX
  5
3D6
330
28C
100
AcDbEntity
  8
0
 62
     9
100
AcDbVertex
100
AcDbPolyFaceMeshVertex
 10
0.2008598744869232
 20
0.3240995109081268
 30
0.0006740079261363
 70
   192
  0
VERTEX
  5
3D7
330
28C
100
AcDbEntity
  8
0
 62
     9
100
AcDbVertex
100
AcDbPolyFaceMeshVertex
 10
0.2010805010795593
 20
0.3239616453647614
 30
0.0013020833721384
 70
   192
  0
VERTEX
  5
3D8
330
28C
100
AcDbEntity
  8
0
 62
     9
100
AcDbVertex
100
AcDbPolyFaceMeshVertex
 10
0.201431468129158
 20
0.3237423300743103
 30
0.0018414239166304
 70
   192
  0
VERTEX
  5
3D9
330
28C
100
AcDbEntity
  8
0
 62
     9
100
AcDbVertex
100
AcDbPolyFaceMeshVertex
 10
0.201888844370842
 20
0.3234565258026123
 30
0.0022552744485438
 70
   192
  0
VERTEX
  5
3DA
330
28C
100
AcDbEntity
  8
0
 62
     9
100
AcDbVertex
100
AcDbPolyFaceMeshVertex
 10
0.2024214863777161
 20
0.3231236934661865
 30
0.0025154317263514
 70
   192
  0
VERTEX
  5
3DB
330
28C
100
AcDbEntity
  8
0
 62
     9
100
AcDbVertex
100
AcDbPolyFaceMeshVertex
 10
0.2029930800199509
 20
0.3227665424346924
 30
0.0026041667442769
 70
   192
  0
VERTEX
  5
3DC
330
28C
100
AcDbEntity
  8
0
 62
     9
100
AcDbVertex
100
AcDbPolyFaceMeshVertex
 10
0.2035646736621857
 20
0.3224093616008759
 30
0.0025154317263514
 70
   192
  0
VERTEX
  5
3DD
330
28C
100
AcDbEntity
  8
0
 62
     9
100
AcDbVertex
100
AcDbPolyFaceMeshVertex
 10
0.2040973156690598
 20
0.3220765292644501
 30
0.0022552744485438
 70
   192
  0
VERTEX
  5
3DE
330
28C
100
AcDbEntity
  8
0
 62
     9
100
AcDbVertex
100
AcDbPolyFaceMeshVertex
 10
0.2045546919107437
 20
0.3217907249927521
 30
0.0018414239166304
 70
   192
  0
VERTEX
  5
3DF
330
28C
100
AcDbEntity
  8
0
 62
     9
100
AcDbVertex
100
AcDbPolyFaceMeshVertex
 10
0.2049056589603424
 20
0.321571409702301
 30
0.0013020833721384
 70
   192
  0
VERTEX
  5
3E0
330
28C
100
AcDbEntity
  8
0
 62
     9
100
AcDbVertex
100
AcDbPolyFaceMeshVertex
 10
0.2051262855529785
 20
0.3214335441589355
 30
0.0006740079261363
 70
   192
  0
VERTEX
  5
3E1
330
28C
100
AcDbEntity
  8
0
 62
     9
100
AcDbVertex
100
AcDbPolyFaceMeshVertex
 10
0.2052015364170074
 20
0.3213865458965302
 30
0.0000000000000328
 70
   192
  0
VERTEX
  5
3E2
330
28C
100
AcDbEntity
  8
0
 62
     9
100
AcDbVertex
100
AcDbPolyFaceMeshVertex
 10
0.2051262855529785
 20
0.3214335441589355
 30
-0.0006740079261363
 70
   192
  0
VERTEX
  5
3E3
330
28C
100
AcDbEntity
  8
0
 62
     9
100
AcDbVertex
100
AcDbPolyFaceMeshVertex
 10
0.2049056589603424
 20
0.321571409702301
 30
-0.0013020833721384
 70
   192
  0
VERTEX
  5
3E4
330
28C
100
AcDbEntity
  8
0
 62
     9
100
AcDbVertex
100
AcDbPolyFaceMeshVertex
 10
0.2045546919107437
 20
0.3217907249927521
 30
-0.0018414239166304
 70
   192
  0
VERTEX
  5
3E5
330
28C
100
AcDbEntity
  8
0
 62
     9
100
AcDbVertex
100
AcDbPolyFaceMeshVertex
 10
0.2040973156690598
 20
0.3220765292644501
 30
-0.0022552744485438
 70
   192
  0
VERTEX
  5
3E6
330
28C
100
AcDbEntity
  8
0
 62
     9
100
AcDbVertex
100
AcDbPolyFaceMeshVertex
 10
0.2035646736621857
 20
0.3224093616008759
 30
-0.0025154317263514
 70
   192
  0
VERTEX
  5
3E7
330
28C
100
AcDbEntity
  8
0
 62
     9
100
AcDbVertex
100
AcDbPolyFaceMeshVertex
 10
0.2051262855529785
 20
0.3214335441589355
 30
0.0006740079261363
 70
   192
  0
VERTEX
  5
3E8
330
28C
100
AcDbEntity
  8
0
 62
     9
100
AcDbVertex
100
AcDbPolyFaceMeshVertex
 10
0.2049056589603424
 20
0.321571409702301
 30
0.0013020833721384
 70
   192
  0
VERTEX
  5
3E9
330
28C
100
AcDbEntity
  8
0
 62
     9
100
AcDbVertex
100
AcDbPolyFaceMeshVertex
 10
0.2045546919107437
 20
0.3217907249927521
 30
0.0018414239166304
 70
   192
  0
VERTEX
  5
3EA
330
28C
100
AcDbEntity
  8
0
 62
     9
100
AcDbVertex
100
AcDbPolyFaceMeshVertex
 10
0.2040973156690598
 20
0.3220765292644501
 30
0.0022552744485438
 70
   192
  0
VERTEX
  5
3EB
330
28C
100
AcDbEntity
  8
0
 62
     9
100
AcDbVertex
100
AcDbPolyFaceMeshVertex
 10
0.2035646736621857
 20
0.3224093616008759
 30
0.0025154317263514
 70
   192
  0
VERTEX
  5
3EC
330
28C
100
AcDbEntity
  8
0
 62
     9
100
AcDbVertex
100
AcDbPolyFaceMeshVertex
 10
0.2029930800199509
 20
0.3227665424346924
 30
0.0026041667442769
 70
   192
  0
VERTEX
  5
3ED
330
28C
100
AcDbEntity
  8
0
 62
     9
100
AcDbVertex
100
AcDbPolyFaceMeshVertex
 10
0.2024214863777161
 20
0.3231236934661865
 30
0.0025154317263514
 70
   192
  0
VERTEX
  5
3EE
330
28C
100
AcDbEntity
  8
0
 62
     9
100
AcDbVertex
100
AcDbPolyFaceMeshVertex
 10
0.201888844370842
 20
0.3234565258026123
 30
0.0022552744485438
 70
   192
  0
VERTEX
  5
3EF
330
28C
100
AcDbEntity
  8
0
 62
     9
100
AcDbVertex
100
AcDbPolyFaceMeshVertex
 10
0.201431468129158
 20
0.3237423300743103
 30
0.0018414239166304
 70
   192
  0
VERTEX
  5
3F0
330
28C
100
AcDbEntity
  8
0
 62
     9
100
AcDbVertex
100
AcDbPolyFaceMeshVertex
 10
0.2010805010795593
 20
0.3239616453647614
 30
0.0013020833721384
 70
   192
  0
VERTEX
  5
3F1
330
28C
100
AcDbEntity
  8
0
 62
     9
100
AcDbVertex
100
AcDbPolyFaceMeshVertex
 10
0.2008598744869232
 20
0.3240995109081268
 30
0.0006740079261363
 70
   192
  0
VERTEX
  5
3F2
330
28C
100
AcDbEntity
  8
0
 62
     9
100
AcDbVertex
100
AcDbPolyFaceMeshVertex
 10
0.2007846236228943
 20
0.3241465389728546
 30
0.0000000000000329
 70
   192
  0
VERTEX
  5
3F3
330
28C
100
AcDbEntity
  8
0
 62
     9
100
AcDbVertex
100
AcDbPolyFaceMeshVertex
 10
0.0148316910490394
 20
0.0265596359968185
 30
0.000000000000028
 70
   192
  0
VERTEX
  5
3F4
330
28C
100
AcDbEntity
  8
0
 62
     9
100
AcDbVertex
100
AcDbPolyFaceMeshVertex
 10
0.0149069428443909
 20
0.0265126135200262
 30
0.0006740079261363
 70
   192
  0
VERTEX
  5
3F5
330
28C
100
AcDbEntity
  8
0
 62
     9
100
AcDbVertex
100
AcDbPolyFaceMeshVertex
 10
0.0151275685057044
 20
0.0263747498393059
 30
0.0013020833721384
 70
   192
  0
VERTEX
  5
3F6
330
28C
100
AcDbEntity
  8
0
 62
     9
100
AcDbVertex
100
AcDbPolyFaceMeshVertex
 10
0.0154785336926579
 20
0.0261554438620806
 30
0.0018414239166304
 70
   192
  0
VERTEX
  5
3F7
330
28C
100
AcDbEntity
  8
0
 62
     9
100
AcDbVertex
100
AcDbPolyFaceMeshVertex
 10
0.0159359201788902
 20
0.0258696358650923
 30
0.0022552744485438
 70
   192
  0
VERTEX
  5
3F8
330
28C
100
AcDbEntity
  8
0
 62
     9
100
AcDbVertex
100
AcDbPolyFaceMeshVertex
 10
0.016468558460474
 20
0.0255368072539568
 30
0.0025154317263514
 70
   192
  0
VERTEX
  5
3F9
330
28C
100
AcDbEntity
  8
0
 62
     9
100
AcDbVertex
100
AcDbPolyFaceMeshVertex
 10
0.0170401502400637
 20
0.0251796375960112
 30
0.0026041667442769
 70
   192
  0
VERTEX
  5
3FA
330
28C
100
AcDbEntity
  8
0
 62
     9
100
AcDbVertex
100
AcDbPolyFaceMeshVertex
 10
0.0176117401570082
 20
0.0248224679380655
 30
0.0025154317263514
 70
   192
  0
VERTEX
  5
3FB
330
28C
100
AcDbEntity
  8
0
 62
     9
100
AcDbVertex
100
AcDbPolyFaceMeshVertex
 10
0.018144378438592
 20
0.0244896374642849
 30
0.0022552744485438
 70
   192
  0
VERTEX
  5
3FC
330
28C
100
AcDbEntity
  8
0
 62
     9
100
AcDbVertex
100
AcDbPolyFaceMeshVertex
 10
0.0186017658561468
 20
0.0242038313299417
 30
0.0018414239166304
 70
   192
  0
VERTEX
  5
3FD
330
28C
100
AcDbEntity
  8
0
 62
     9
100
AcDbVertex
100
AcDbPolyFaceMeshVertex
 10
0.0189527310431004
 20
0.0239845234900713
 30
0.0013020833721384
 70
   192
  0
VERTEX
  5
3FE
330
28C
100
AcDbEntity
  8
0
 62
     9
100
AcDbVertex
100
AcDbPolyFaceMeshVertex
 10
0.0191733576357365
 20
0.0238466616719961
 30
0.0006740079261363
 70
   192
  0
VERTEX
  5
3FF
330
28C
100
AcDbEntity
  8
0
 62
     9
100
AcDbVertex
100
AcDbPolyFaceMeshVertex
 10
0.0192486084997654
 20
0.0237996391952038
 30
0.000000000000028
 70
   192
  0
VERTEX
  5
400
330
28C
100
AcDbEntity
  8
0
 62
     9
100
AcDbVertex
100
AcDbPolyFaceMeshVertex
 10
0.2052015364170074
 20
0.3213865458965302
 30
0.0000000000000328
 70
   192
  0
VERTEX
  5
401
330
28C
100
AcDbEntity
  8
0
 62
     9
100
AcDbVertex
100
AcDbPolyFaceMeshVertex
 10
0.2008598744869232
 20
0.3240995109081268
 30
-0.0006740079261363
 70
   192
  0
VERTEX
  5
402
330
28C
100
AcDbEntity
  8
0
 62
     9
100
AcDbVertex
100
AcDbPolyFaceMeshVertex
 10
0.2010805010795593
 20
0.3239616453647614
 30
-0.0013020833721384
 70
   192
  0
VERTEX
  5
403
330
28C
100
AcDbEntity
  8
0
 62
     9
100
AcDbVertex
100
AcDbPolyFaceMeshVertex
 10
0.201431468129158
 20
0.3237423300743103
 30
-0.0018414239166304
 70
   192
  0
VERTEX
  5
404
330
28C
100
AcDbEntity
  8
0
 62
     9
100
AcDbVertex
100
AcDbPolyFaceMeshVertex
 10
0.201888844370842
 20
0.3234565258026123
 30
-0.0022552744485438
 70
   192
  0
VERTEX
  5
405
330
28C
100
AcDbEntity
  8
0
 62
     9
100
AcDbVertex
100
AcDbPolyFaceMeshVertex
 10
0.2024214863777161
 20
0.3231236934661865
 30
-0.0025154317263514
 70
   192
  0
VERTEX
  5
406
330
28C
100
AcDbEntity
  8
0
 62
     9
100
AcDbVertex
100
AcDbPolyFaceMeshVertex
 10
0.2029930800199509
 20
0.3227665424346924
 30
-0.0026041667442769
 70
   192
  0
VERTEX
  5
407
330
28C
100
AcDbEntity
  8
0
 62
     9
100
AcDbVertex
100
AcDbPolyFaceMeshVertex
 10
0.2035646736621857
 20
0.3224093616008759
 30
-0.0025154317263514
 70
   192
  0
VERTEX
  5
408
330
28C
100
AcDbEntity
  8
0
 62
     9
100
AcDbVertex
100
AcDbPolyFaceMeshVertex
 10
0.2040973156690598
 20
0.3220765292644501
 30
-0.0022552744485438
 70
   192
  0
VERTEX
  5
409
330
28C
100
AcDbEntity
  8
0
 62
     9
100
AcDbVertex
100
AcDbPolyFaceMeshVertex
 10
0.2045546919107437
 20
0.3217907249927521
 30
-0.0018414239166304
 70
   192
  0
VERTEX
  5
40A
330
28C
100
AcDbEntity
  8
0
 62
     9
100
AcDbVertex
100
AcDbPolyFaceMeshVertex
 10
0.2049056589603424
 20
0.321571409702301
 30
-0.0013020833721384
 70
   192
  0
VERTEX
  5
40B
330
28C
100
AcDbEntity
  8
0
 62
     9
100
AcDbVertex
100
AcDbPolyFaceMeshVertex
 10
0.2051262855529785
 20
0.3214335441589355
 30
-0.0006740079261363
 70
   192
  0
VERTEX
  5
40C
330
28C
100
AcDbEntity
  8
0
 62
     9
100
AcDbVertex
100
AcDbPolyFaceMeshVertex
 10
0.2052015364170074
 20
0.3213865458965302
 30
0.0000000000000328
 70
   192
  0
VERTEX
  5
40D
330
28C
100
AcDbEntity
  8
0
 62
     9
100
AcDbVertex
100
AcDbPolyFaceMeshVertex
 10
0.0192486084997654
 20
0.0237996391952038
 30
0.000000000000028
 70
   192
  0
VERTEX
  5
40E
330
28C
100
AcDbEntity
  8
0
 62
     9
100
AcDbVertex
100
AcDbPolyFaceMeshVertex
 10
0.0191733576357365
 20
0.0238466616719961
 30
-0.0006740079261363
 70
   192
  0
VERTEX
  5
40F
330
28C
100
AcDbEntity
  8
0
 62
     9
100
AcDbVertex
100
AcDbPolyFaceMeshVertex
 10
0.0189527310431004
 20
0.0239845234900713
 30
-0.0013020833721384
 70
   192
  0
VERTEX
  5
410
330
28C
100
AcDbEntity
  8
0
 62
     9
100
AcDbVertex
100
AcDbPolyFaceMeshVertex
 10
0.0186017658561468
 20
0.0242038313299417
 30
-0.0018414239166304
 70
   192
  0
VERTEX
  5
411
330
28C
100
AcDbEntity
  8
0
 62
     9
100
AcDbVertex
100
AcDbPolyFaceMeshVertex
 10
0.018144378438592
 20
0.0244896374642849
 30
-0.0022552744485438
 70
   192
  0
VERTEX
  5
412
330
28C
100
AcDbEntity
  8
0
 62
     9
100
AcDbVertex
100
AcDbPolyFaceMeshVertex
 10
0.0176117401570082
 20
0.0248224679380655
 30
-0.0025154317263514
 70
   192
  0
VERTEX
  5
413
330
28C
100
AcDbEntity
  8
0
 62
     9
100
AcDbVertex
100
AcDbPolyFaceMeshVertex
 10
0.0170401502400637
 20
0.0251796375960112
 30
-0.0026041667442769
 70
   192
  0
VERTEX
  5
414
330
28C
100
AcDbEntity
  8
0
 62
     9
100
AcDbVertex
100
AcDbPolyFaceMeshVertex
 10
0.016468558460474
 20
0.0255368072539568
 30
-0.0025154317263514
 70
   192
  0
VERTEX
  5
415
330
28C
100
AcDbEntity
  8
0
 62
     9
100
AcDbVertex
100
AcDbPolyFaceMeshVertex
 10
0.0159359201788902
 20
0.0258696358650923
 30
-0.0022552744485438
 70
   192
  0
VERTEX
  5
416
330
28C
100
AcDbEntity
  8
0
 62
     9
100
AcDbVertex
100
AcDbPolyFaceMeshVertex
 10
0.0154785336926579
 20
0.0261554438620806
 30
-0.0018414239166304
 70
   192
  0
VERTEX
  5
417
330
28C
100
AcDbEntity
  8
0
 62
     9
100
AcDbVertex
100
AcDbPolyFaceMeshVertex
 10
0.0151275685057044
 20
0.0263747498393059
 30
-0.0013020833721384
 70
   192
  0
VERTEX
  5
418
330
28C
100
AcDbEntity
  8
0
 62
     9
100
AcDbVertex
100
AcDbPolyFaceMeshVertex
 10
0.0149069428443909
 20
0.0265126135200262
 30
-0.0006740079261363
 70
   192
  0
VERTEX
  5
419
330
28C
100
AcDbEntity
  8
0
 62
     9
100
AcDbVertex
100
AcDbPolyFaceMeshVertex
 10
0.0148316910490394
 20
0.0265596359968185
 30
0.000000000000028
 70
   192
  0
VERTEX
  5
41A
330
28C
100
AcDbEntity
  8
0
 62
     9
100
AcDbVertex
100
AcDbPolyFaceMeshVertex
 10
0.2007846236228943
 20
0.3241465389728546
 30
0.0000000000000329
 70
   192
  0
VERTEX
  5
41B
330
28C
100
AcDbEntity
  8
0
 62
     9
100
AcDbVertex
100
AcDbPolyFaceMeshVertex
 10
-0.0013020833721384
 20
0.03125
 30
-0.0022552744485438
 70
   192
  0
VERTEX
  5
41C
330
28C
100
AcDbEntity
  8
0
 62
     9
100
AcDbVertex
100
AcDbPolyFaceMeshVertex
 10
-0.0006740079261363
 20
0.03125
 30
-0.0025154317263514
 70
   192
  0
VERTEX
  5
41D
330
28C
100
AcDbEntity
  8
0
 62
     9
100
AcDbVertex
100
AcDbPolyFaceMeshVertex
 10
0.0000000000000617
 20
0.03125
 30
-0.0026041667442769
 70
   192
  0
VERTEX
  5
41E
330
28C
100
AcDbEntity
  8
0
 62
     9
100
AcDbVertex
100
AcDbPolyFaceMeshVertex
 10
0.0006740079261363
 20
0.03125
 30
-0.0025154317263514
 70
   192
  0
VERTEX
  5
41F
330
28C
100
AcDbEntity
  8
0
 62
     9
100
AcDbVertex
100
AcDbPolyFaceMeshVertex
 10
0.0013020833721384
 20
0.03125
 30
-0.0022552744485438
 70
   192
  0
VERTEX
  5
420
330
28C
100
AcDbEntity
  8
0
 62
     9
100
AcDbVertex
100
AcDbPolyFaceMeshVertex
 10
0.0018414239166304
 20
0.03125
 30
-0.0018414239166304
 70
   192
  0
VERTEX
  5
421
330
28C
100
AcDbEntity
  8
0
 62
     9
100
AcDbVertex
100
AcDbPolyFaceMeshVertex
 10
0.0022552744485438
 20
0.03125
 30
-0.0013020833721384
 70
   192
  0
VERTEX
  5
422
330
28C
100
AcDbEntity
  8
0
 62
     9
100
AcDbVertex
100
AcDbPolyFaceMeshVertex
 10
0.0025154317263514
 20
0.03125
 30
-0.0006740079261363
 70
   192
  0
VERTEX
  5
423
330
28C
100
AcDbEntity
  8
0
 62
     9
100
AcDbVertex
100
AcDbPolyFaceMeshVertex
 10
0.0026041667442769
 20
0.03125
 30
0.0000000000000281
 70
   192
  0
VERTEX
  5
424
330
28C
100
AcDbEntity
  8
0
 62
     9
100
AcDbVertex
100
AcDbPolyFaceMeshVertex
 10
0.0025154317263514
 20
0.03125
 30
0.0006740079261363
 70
   192
  0
VERTEX
  5
425
330
28C
100
AcDbEntity
  8
0
 62
     9
100
AcDbVertex
100
AcDbPolyFaceMeshVertex
 10
0.0022552744485438
 20
0.03125
 30
0.0013020833721384
 70
   192
  0
VERTEX
  5
426
330
28C
100
AcDbEntity
  8
0
 62
     9
100
AcDbVertex
100
AcDbPolyFaceMeshVertex
 10
0.0018414239166304
 20
0.03125
 30
0.0018414239166304
 70
   192
  0
VERTEX
  5
427
330
28C
100
AcDbEntity
  8
0
 62
     9
100
AcDbVertex
100
AcDbPolyFaceMeshVertex
 10
0.0013020833721384
 20
0.03125
 30
0.0022552744485438
 70
   192
  0
VERTEX
  5
428
330
28C
100
AcDbEntity
  8
0
 62
     9
100
AcDbVertex
100
AcDbPolyFaceMeshVertex
 10
0.0006740079261363
 20
0.03125
 30
0.0025154317263514
 70
   192
  0
VERTEX
  5
429
330
28C
100
AcDbEntity
  8
0
 62
     9
100
AcDbVertex
100
AcDbPolyFaceMeshVertex
 10
0.0000000000000617
 20
0.03125
 30
0.0026041667442769
 70
   192
  0
VERTEX
  5
42A
330
28C
100
AcDbEntity
  8
0
 62
     9
100
AcDbVertex
100
AcDbPolyFaceMeshVertex
 10
-0.0006740079261363
 20
0.03125
 30
0.0025154317263514
 70
   192
  0
VERTEX
  5
42B
330
28C
100
AcDbEntity
  8
0
 62
     9
100
AcDbVertex
100
AcDbPolyFaceMeshVertex
 10
-0.0013020833721384
 20
0.03125
 30
0.0022552744485438
 70
   192
  0
VERTEX
  5
42C
330
28C
100
AcDbEntity
  8
0
 62
     9
100
AcDbVertex
100
AcDbPolyFaceMeshVertex
 10
-0.0018414239166304
 20
0.03125
 30
0.0018414239166304
 70
   192
  0
VERTEX
  5
42D
330
28C
100
AcDbEntity
  8
0
 62
     9
100
AcDbVertex
100
AcDbPolyFaceMeshVertex
 10
-0.0022552744485438
 20
0.03125
 30
0.0013020833721384
 70
   192
  0
VERTEX
  5
42E
330
28C
100
AcDbEntity
  8
0
 62
     9
100
AcDbVertex
100
AcDbPolyFaceMeshVertex
 10
-0.0025154317263514
 20
0.03125
 30
0.0006740079261363
 70
   192
  0
VERTEX
  5
42F
330
28C
100
AcDbEntity
  8
0
 62
     9
100
AcDbVertex
100
AcDbPolyFaceMeshVertex
 10
-0.0026041667442769
 20
0.03125
 30
0.0000000000000281
 70
   192
  0
VERTEX
  5
430
330
28C
100
AcDbEntity
  8
0
 62
     9
100
AcDbVertex
100
AcDbPolyFaceMeshVertex
 10
-0.0025154317263514
 20
0.03125
 30
-0.0006740079261363
 70
   192
  0
VERTEX
  5
431
330
28C
100
AcDbEntity
  8
0
 62
     9
100
AcDbVertex
100
AcDbPolyFaceMeshVertex
 10
-0.0022552744485438
 20
0.03125
 30
-0.0013020833721384
 70
   192
  0
VERTEX
  5
432
330
28C
100
AcDbEntity
  8
0
 62
     9
100
AcDbVertex
100
AcDbPolyFaceMeshVertex
 10
-0.0018414239166304
 20
0.03125
 30
-0.0018414239166304
 70
   192
  0
VERTEX
  5
433
330
28C
100
AcDbEntity
  8
0
 62
     9
100
AcDbVertex
100
AcDbPolyFaceMeshVertex
 10
0.0000000000000622
 20
0.375
 30
-0.0026041667442769
 70
   192
  0
VERTEX
  5
434
330
28C
100
AcDbEntity
  8
0
 62
     9
100
AcDbVertex
100
AcDbPolyFaceMeshVertex
 10
-0.0006740079261363
 20
0.375
 30
-0.0025154317263514
 70
   192
  0
VERTEX
  5
435
330
28C
100
AcDbEntity
  8
0
 62
     9
100
AcDbVertex
100
AcDbPolyFaceMeshVertex
 10
-0.0013020833721384
 20
0.375
 30
-0.0022552744485438
 70
   192
  0
VERTEX
  5
436
330
28C
100
AcDbEntity
  8
0
 62
     9
100
AcDbVertex
100
AcDbPolyFaceMeshVertex
 10
-0.0018414239166304
 20
0.375
 30
-0.0018414239166304
 70
   192
  0
VERTEX
  5
437
330
28C
100
AcDbEntity
  8
0
 62
     9
100
AcDbVertex
100
AcDbPolyFaceMeshVertex
 10
-0.0022552744485438
 20
0.375
 30
-0.0013020833721384
 70
   192
  0
VERTEX
  5
438
330
28C
100
AcDbEntity
  8
0
 62
     9
100
AcDbVertex
100
AcDbPolyFaceMeshVertex
 10
-0.0025154317263514
 20
0.375
 30
-0.0006740079261363
 70
   192
  0
VERTEX
  5
439
330
28C
100
AcDbEntity
  8
0
 62
     9
100
AcDbVertex
100
AcDbPolyFaceMeshVertex
 10
-0.0026041667442769
 20
0.375
 30
0.0000000000000329
 70
   192
  0
VERTEX
  5
43A
330
28C
100
AcDbEntity
  8
0
 62
     9
100
AcDbVertex
100
AcDbPolyFaceMeshVertex
 10
-0.0025154317263514
 20
0.375
 30
0.0006740079261363
 70
   192
  0
VERTEX
  5
43B
330
28C
100
AcDbEntity
  8
0
 62
     9
100
AcDbVertex
100
AcDbPolyFaceMeshVertex
 10
-0.0022552744485438
 20
0.375
 30
0.0013020833721384
 70
   192
  0
VERTEX
  5
43C
330
28C
100
AcDbEntity
  8
0
 62
     9
100
AcDbVertex
100
AcDbPolyFaceMeshVertex
 10
-0.0018414239166304
 20
0.375
 30
0.0018414239166304
 70
   192
  0
VERTEX
  5
43D
330
28C
100
AcDbEntity
  8
0
 62
     9
100
AcDbVertex
100
AcDbPolyFaceMeshVertex
 10
-0.0013020833721384
 20
0.375
 30
0.0022552744485438
 70
   192
  0
VERTEX
  5
43E
330
28C
100
AcDbEntity
  8
0
 62
     9
100
AcDbVertex
100
AcDbPolyFaceMeshVertex
 10
-0.0006740079261363
 20
0.375
 30
0.0025154317263514
 70
   192
  0
VERTEX
  5
43F
330
28C
100
AcDbEntity
  8
0
 62
     9
100
AcDbVertex
100
AcDbPolyFaceMeshVertex
 10
0.0000000000000623
 20
0.375
 30
0.0026041667442769
 70
   192
  0
VERTEX
  5
440
330
28C
100
AcDbEntity
  8
0
 62
     9
100
AcDbVertex
100
AcDbPolyFaceMeshVertex
 10
0.0006740079261363
 20
0.375
 30
0.0025154317263514
 70
   192
  0
VERTEX
  5
441
330
28C
100
AcDbEntity
  8
0
 62
     9
100
AcDbVertex
100
AcDbPolyFaceMeshVertex
 10
0.0013020833721384
 20
0.375
 30
0.0022552744485438
 70
   192
  0
VERTEX
  5
442
330
28C
100
AcDbEntity
  8
0
 62
     9
100
AcDbVertex
100
AcDbPolyFaceMeshVertex
 10
0.0018414239166304
 20
0.375
 30
0.0018414239166304
 70
   192
  0
VERTEX
  5
443
330
28C
100
AcDbEntity
  8
0
 62
     9
100
AcDbVertex
100
AcDbPolyFaceMeshVertex
 10
0.0022552744485438
 20
0.375
 30
0.0013020833721384
 70
   192
  0
VERTEX
  5
444
330
28C
100
AcDbEntity
  8
0
 62
     9
100
AcDbVertex
100
AcDbPolyFaceMeshVertex
 10
0.0025154317263514
 20
0.375
 30
0.0006740079261363
 70
   192
  0
VERTEX
  5
445
330
28C
100
AcDbEntity
  8
0
 62
     9
100
AcDbVertex
100
AcDbPolyFaceMeshVertex
 10
0.0026041667442769
 20
0.375
 30
0.0000000000000328
 70
   192
  0
VERTEX
  5
446
330
28C
100
AcDbEntity
  8
0
 62
     9
100
AcDbVertex
100
AcDbPolyFaceMeshVertex
 10
0.0025154317263514
 20
0.375
 30
-0.0006740079261363
 70
   192
  0
VERTEX
  5
447
330
28C
100
AcDbEntity
  8
0
 62
     9
100
AcDbVertex
100
AcDbPolyFaceMeshVertex
 10
0.0022552744485438
 20
0.375
 30
-0.0013020833721384
 70
   192
  0
VERTEX
  5
448
330
28C
100
AcDbEntity
  8
0
 62
     9
100
AcDbVertex
100
AcDbPolyFaceMeshVertex
 10
0.0018414239166304
 20
0.375
 30
-0.0018414239166304
 70
   192
  0
VERTEX
  5
449
330
28C
100
AcDbEntity
  8
0
 62
     9
100
AcDbVertex
100
AcDbPolyFaceMeshVertex
 10
0.0013020833721384
 20
0.375
 30
-0.0022552744485438
 70
   192
  0
VERTEX
  5
44A
330
28C
100
AcDbEntity
  8
0
 62
     9
100
AcDbVertex
100
AcDbPolyFaceMeshVertex
 10
0.0006740079261363
 20
0.375
 30
-0.0025154317263514
 70
   192
  0
VERTEX
  5
44B
330
28C
100
AcDbEntity
  8
0
 62
     9
100
AcDbVertex
100
AcDbPolyFaceMeshVertex
 10
0.0025154317263514
 20
0.375
 30
0.0006740079261363
 70
   192
  0
VERTEX
  5
44C
330
28C
100
AcDbEntity
  8
0
 62
     9
100
AcDbVertex
100
AcDbPolyFaceMeshVertex
 10
0.0022552744485438
 20
0.375
 30
0.0013020833721384
 70
   192
  0
VERTEX
  5
44D
330
28C
100
AcDbEntity
  8
0
 62
     9
100
AcDbVertex
100
AcDbPolyFaceMeshVertex
 10
0.0018414239166304
 20
0.375
 30
0.0018414239166304
 70
   192
  0
VERTEX
  5
44E
330
28C
100
AcDbEntity
  8
0
 62
     9
100
AcDbVertex
100
AcDbPolyFaceMeshVertex
 10
0.0013020833721384
 20
0.375
 30
0.0022552744485438
 70
   192
  0
VERTEX
  5
44F
330
28C
100
AcDbEntity
  8
0
 62
     9
100
AcDbVertex
100
AcDbPolyFaceMeshVertex
 10
0.0006740079261363
 20
0.375
 30
0.0025154317263514
 70
   192
  0
VERTEX
  5
450
330
28C
100
AcDbEntity
  8
0
 62
     9
100
AcDbVertex
100
AcDbPolyFaceMeshVertex
 10
0.0000000000000623
 20
0.375
 30
0.0026041667442769
 70
   192
  0
VERTEX
  5
451
330
28C
100
AcDbEntity
  8
0
 62
     9
100
AcDbVertex
100
AcDbPolyFaceMeshVertex
 10
-0.0006740079261363
 20
0.375
 30
0.0025154317263514
 70
   192
  0
VERTEX
  5
452
330
28C
100
AcDbEntity
  8
0
 62
     9
100
AcDbVertex
100
AcDbPolyFaceMeshVertex
 10
-0.0013020833721384
 20
0.375
 30
0.0022552744485438
 70
   192
  0
VERTEX
  5
453
330
28C
100
AcDbEntity
  8
0
 62
     9
100
AcDbVertex
100
AcDbPolyFaceMeshVertex
 10
-0.0018414239166304
 20
0.375
 30
0.0018414239166304
 70
   192
  0
VERTEX
  5
454
330
28C
100
AcDbEntity
  8
0
 62
     9
100
AcDbVertex
100
AcDbPolyFaceMeshVertex
 10
-0.0022552744485438
 20
0.375
 30
0.0013020833721384
 70
   192
  0
VERTEX
  5
455
330
28C
100
AcDbEntity
  8
0
 62
     9
100
AcDbVertex
100
AcDbPolyFaceMeshVertex
 10
-0.0025154317263514
 20
0.375
 30
0.0006740079261363
 70
   192
  0
VERTEX
  5
456
330
28C
100
AcDbEntity
  8
0
 62
     9
100
AcDbVertex
100
AcDbPolyFaceMeshVertex
 10
-0.0026041667442769
 20
0.375
 30
0.0000000000000329
 70
   192
  0
VERTEX
  5
457
330
28C
100
AcDbEntity
  8
0
 62
     9
100
AcDbVertex
100
AcDbPolyFaceMeshVertex
 10
-0.0026041667442769
 20
0.03125
 30
0.0000000000000281
 70
   192
  0
VERTEX
  5
458
330
28C
100
AcDbEntity
  8
0
 62
     9
100
AcDbVertex
100
AcDbPolyFaceMeshVertex
 10
-0.0025154317263514
 20
0.03125
 30
0.0006740079261363
 70
   192
  0
VERTEX
  5
459
330
28C
100
AcDbEntity
  8
0
 62
     9
100
AcDbVertex
100
AcDbPolyFaceMeshVertex
 10
-0.0022552744485438
 20
0.03125
 30
0.0013020833721384
 70
   192
  0
VERTEX
  5
45A
330
28C
100
AcDbEntity
  8
0
 62
     9
100
AcDbVertex
100
AcDbPolyFaceMeshVertex
 10
-0.0018414239166304
 20
0.03125
 30
0.0018414239166304
 70
   192
  0
VERTEX
  5
45B
330
28C
100
AcDbEntity
  8
0
 62
     9
100
AcDbVertex
100
AcDbPolyFaceMeshVertex
 10
-0.0013020833721384
 20
0.03125
 30
0.0022552744485438
 70
   192
  0
VERTEX
  5
45C
330
28C
100
AcDbEntity
  8
0
 62
     9
100
AcDbVertex
100
AcDbPolyFaceMeshVertex
 10
-0.0006740079261363
 20
0.03125
 30
0.0025154317263514
 70
   192
  0
VERTEX
  5
45D
330
28C
100
AcDbEntity
  8
0
 62
     9
100
AcDbVertex
100
AcDbPolyFaceMeshVertex
 10
0.0000000000000617
 20
0.03125
 30
0.0026041667442769
 70
   192
  0
VERTEX
  5
45E
330
28C
100
AcDbEntity
  8
0
 62
     9
100
AcDbVertex
100
AcDbPolyFaceMeshVertex
 10
0.0006740079261363
 20
0.03125
 30
0.0025154317263514
 70
   192
  0
VERTEX
  5
45F
330
28C
100
AcDbEntity
  8
0
 62
     9
100
AcDbVertex
100
AcDbPolyFaceMeshVertex
 10
0.0013020833721384
 20
0.03125
 30
0.0022552744485438
 70
   192
  0
VERTEX
  5
460
330
28C
100
AcDbEntity
  8
0
 62
     9
100
AcDbVertex
100
AcDbPolyFaceMeshVertex
 10
0.0018414239166304
 20
0.03125
 30
0.0018414239166304
 70
   192
  0
VERTEX
  5
461
330
28C
100
AcDbEntity
  8
0
 62
     9
100
AcDbVertex
100
AcDbPolyFaceMeshVertex
 10
0.0022552744485438
 20
0.03125
 30
0.0013020833721384
 70
   192
  0
VERTEX
  5
462
330
28C
100
AcDbEntity
  8
0
 62
     9
100
AcDbVertex
100
AcDbPolyFaceMeshVertex
 10
0.0025154317263514
 20
0.03125
 30
0.0006740079261363
 70
   192
  0
VERTEX
  5
463
330
28C
100
AcDbEntity
  8
0
 62
     9
100
AcDbVertex
100
AcDbPolyFaceMeshVertex
 10
0.0026041667442769
 20
0.03125
 30
0.0000000000000281
 70
   192
  0
VERTEX
  5
464
330
28C
100
AcDbEntity
  8
0
 62
     9
100
AcDbVertex
100
AcDbPolyFaceMeshVertex
 10
0.0026041667442769
 20
0.375
 30
0.0000000000000328
 70
   192
  0
VERTEX
  5
465
330
28C
100
AcDbEntity
  8
0
 62
     9
100
AcDbVertex
100
AcDbPolyFaceMeshVertex
 10
-0.0025154317263514
 20
0.375
 30
-0.0006740079261363
 70
   192
  0
VERTEX
  5
466
330
28C
100
AcDbEntity
  8
0
 62
     9
100
AcDbVertex
100
AcDbPolyFaceMeshVertex
 10
-0.0022552744485438
 20
0.375
 30
-0.0013020833721384
 70
   192
  0
VERTEX
  5
467
330
28C
100
AcDbEntity
  8
0
 62
     9
100
AcDbVertex
100
AcDbPolyFaceMeshVertex
 10
-0.0018414239166304
 20
0.375
 30
-0.0018414239166304
 70
   192
  0
VERTEX
  5
468
330
28C
100
AcDbEntity
  8
0
 62
     9
100
AcDbVertex
100
AcDbPolyFaceMeshVertex
 10
-0.0013020833721384
 20
0.375
 30
-0.0022552744485438
 70
   192
  0
VERTEX
  5
469
330
28C
100
AcDbEntity
  8
0
 62
     9
100
AcDbVertex
100
AcDbPolyFaceMeshVertex
 10
-0.0006740079261363
 20
0.375
 30
-0.0025154317263514
 70
   192
  0
VERTEX
  5
46A
330
28C
100
AcDbEntity
  8
0
 62
     9
100
AcDbVertex
100
AcDbPolyFaceMeshVertex
 10
0.0000000000000622
 20
0.375
 30
-0.0026041667442769
 70
   192
  0
VERTEX
  5
46B
330
28C
100
AcDbEntity
  8
0
 62
     9
100
AcDbVertex
100
AcDbPolyFaceMeshVertex
 10
0.0006740079261363
 20
0.375
 30
-0.0025154317263514
 70
   192
  0
VERTEX
  5
46C
330
28C
100
AcDbEntity
  8
0
 62
     9
100
AcDbVertex
100
AcDbPolyFaceMeshVertex
 10
0.0013020833721384
 20
0.375
 30
-0.0022552744485438
 70
   192
  0
VERTEX
  5
46D
330
28C
100
AcDbEntity
  8
0
 62
     9
100
AcDbVertex
100
AcDbPolyFaceMeshVertex
 10
0.0018414239166304
 20
0.375
 30
-0.0018414239166304
 70
   192
  0
VERTEX
  5
46E
330
28C
100
AcDbEntity
  8
0
 62
     9
100
AcDbVertex
100
AcDbPolyFaceMeshVertex
 10
0.0022552744485438
 20
0.375
 30
-0.0013020833721384
 70
   192
  0
VERTEX
  5
46F
330
28C
100
AcDbEntity
  8
0
 62
     9
100
AcDbVertex
100
AcDbPolyFaceMeshVertex
 10
0.0025154317263514
 20
0.375
 30
-0.0006740079261363
 70
   192
  0
VERTEX
  5
470
330
28C
100
AcDbEntity
  8
0
 62
     9
100
AcDbVertex
100
AcDbPolyFaceMeshVertex
 10
0.0026041667442769
 20
0.375
 30
0.0000000000000328
 70
   192
  0
VERTEX
  5
471
330
28C
100
AcDbEntity
  8
0
 62
     9
100
AcDbVertex
100
AcDbPolyFaceMeshVertex
 10
0.0026041667442769
 20
0.03125
 30
0.0000000000000281
 70
   192
  0
VERTEX
  5
472
330
28C
100
AcDbEntity
  8
0
 62
     9
100
AcDbVertex
100
AcDbPolyFaceMeshVertex
 10
0.0025154317263514
 20
0.03125
 30
-0.0006740079261363
 70
   192
  0
VERTEX
  5
473
330
28C
100
AcDbEntity
  8
0
 62
     9
100
AcDbVertex
100
AcDbPolyFaceMeshVertex
 10
0.0022552744485438
 20
0.03125
 30
-0.0013020833721384
 70
   192
  0
VERTEX
  5
474
330
28C
100
AcDbEntity
  8
0
 62
     9
100
AcDbVertex
100
AcDbPolyFaceMeshVertex
 10
0.0018414239166304
 20
0.03125
 30
-0.0018414239166304
 70
   192
  0
VERTEX
  5
475
330
28C
100
AcDbEntity
  8
0
 62
     9
100
AcDbVertex
100
AcDbPolyFaceMeshVertex
 10
0.0013020833721384
 20
0.03125
 30
-0.0022552744485438
 70
   192
  0
VERTEX
  5
476
330
28C
100
AcDbEntity
  8
0
 62
     9
100
AcDbVertex
100
AcDbPolyFaceMeshVertex
 10
0.0006740079261363
 20
0.03125
 30
-0.0025154317263514
 70
   192
  0
VERTEX
  5
477
330
28C
100
AcDbEntity
  8
0
 62
     9
100
AcDbVertex
100
AcDbPolyFaceMeshVertex
 10
0.0000000000000617
 20
0.03125
 30
-0.0026041667442769
 70
   192
  0
VERTEX
  5
478
330
28C
100
AcDbEntity
  8
0
 62
     9
100
AcDbVertex
100
AcDbPolyFaceMeshVertex
 10
-0.0006740079261363
 20
0.03125
 30
-0.0025154317263514
 70
   192
  0
VERTEX
  5
479
330
28C
100
AcDbEntity
  8
0
 62
     9
100
AcDbVertex
100
AcDbPolyFaceMeshVertex
 10
-0.0013020833721384
 20
0.03125
 30
-0.0022552744485438
 70
   192
  0
VERTEX
  5
47A
330
28C
100
AcDbEntity
  8
0
 62
     9
100
AcDbVertex
100
AcDbPolyFaceMeshVertex
 10
-0.0018414239166304
 20
0.03125
 30
-0.0018414239166304
 70
   192
  0
VERTEX
  5
47B
330
28C
100
AcDbEntity
  8
0
 62
     9
100
AcDbVertex
100
AcDbPolyFaceMeshVertex
 10
-0.0022552744485438
 20
0.03125
 30
-0.0013020833721384
 70
   192
  0
VERTEX
  5
47C
330
28C
100
AcDbEntity
  8
0
 62
     9
100
AcDbVertex
100
AcDbPolyFaceMeshVertex
 10
-0.0025154317263514
 20
0.03125
 30
-0.0006740079261363
 70
   192
  0
VERTEX
  5
47D
330
28C
100
AcDbEntity
  8
0
 62
     9
100
AcDbVertex
100
AcDbPolyFaceMeshVertex
 10
-0.0026041667442769
 20
0.03125
 30
0.0000000000000281
 70
   192
  0
VERTEX
  5
47E
330
28C
100
AcDbEntity
  8
0
 62
     9
100
AcDbVertex
100
AcDbPolyFaceMeshVertex
 10
-0.0026041667442769
 20
0.375
 30
0.0000000000000329
 70
   192
  0
VERTEX
  5
47F
330
28C
100
AcDbEntity
  8
0
 62
     9
100
AcDbFaceRecord
 10
0.0
 20
0.0
 30
0.0
 70
   128
 71
     1
 72
     2
 73
    22
  0
VERTEX
  5
480
330
28C
100
AcDbEntity
  8
0
 62
     9
100
AcDbFaceRecord
 10
0.0
 20
0.0
 30
0.0
 70
   128
 71
    22
 72
     2
 73
    21
  0
VERTEX
  5
481
330
28C
100
AcDbEntity
  8
0
 62
     9
100
AcDbFaceRecord
 10
0.0
 20
0.0
 30
0.0
 70
   128
 71
    21
 72
     2
 73
     7
  0
VERTEX
  5
482
330
28C
100
AcDbEntity
  8
0
 62
     9
100
AcDbFaceRecord
 10
0.0
 20
0.0
 30
0.0
 70
   128
 71
     7
 72
     2
 73
     3
  0
VERTEX
  5
483
330
28C
100
AcDbEntity
  8
0
 62
     9
100
AcDbFaceRecord
 10
0.0
 20
0.0
 30
0.0
 70
   128
 71
     7
 72
     3
 73
     4
  0
VERTEX
  5
484
330
28C
100
AcDbEntity
  8
0
 62
     9
100
AcDbFaceRecord
 10
0.0
 20
0.0
 30
0.0
 70
   128
 71
     7
 72
     4
 73
     6
  0
VERTEX
  5
485
330
28C
100
AcDbEntity
  8
0
 62
     9
100
AcDbFaceRecord
 10
0.0
 20
0.0
 30
0.0
 70
   128
 71
     6
 72
     4
 73
     5
  0
VERTEX
  5
486
330
28C
100
AcDbEntity
  8
0
 62
     9
100
AcDbFaceRecord
 10
0.0
 20
0.0
 30
0.0
 70
   128
 71
    21
 72
     7
 73
    11
  0
VERTEX
  5
487
330
28C
100
AcDbEntity
  8
0
 62
     9
100
AcDbFaceRecord
 10
0.0
 20
0.0
 30
0.0
 70
   128
 71
    11
 72
     7
 73
     9
  0
VERTEX
  5
488
330
28C
100
AcDbEntity
  8
0
 62
     9
100
AcDbFaceRecord
 10
0.0
 20
0.0
 30
0.0
 70
   128
 71
     9
 72
     7
 73
     8
  0
VERTEX
  5
489
330
28C
100
AcDbEntity
  8
0
 62
     9
100
AcDbFaceRecord
 10
0.0
 20
0.0
 30
0.0
 70
   128
 71
    11
 72
     9
 73
    10
  0
VERTEX
  5
48A
330
28C
100
AcDbEntity
  8
0
 62
     9
100
AcDbFaceRecord
 10
0.0
 20
0.0
 30
0.0
 70
   128
 71
    21
 72
    11
 73
    18
  0
VERTEX
  5
48B
330
28C
100
AcDbEntity
  8
0
 62
     9
100
AcDbFaceRecord
 10
0.0
 20
0.0
 30
0.0
 70
   128
 71
    18
 72
    11
 73
    13
  0
VERTEX
  5
48C
330
28C
100
AcDbEntity
  8
0
 62
     9
100
AcDbFaceRecord
 10
0.0
 20
0.0
 30
0.0
 70
   128
 71
    13
 72
    11
 73
    12
  0
VERTEX
  5
48D
330
28C
100
AcDbEntity
  8
0
 62
     9
100
AcDbFaceRecord
 10
0.0
 20
0.0
 30
0.0
 70
   128
 71
    18
 72
    13
 73
    16
  0
VERTEX
  5
48E
330
28C
100
AcDbEntity
  8
0
 62
     9
100
AcDbFaceRecord
 10
0.0
 20
0.0
 30
0.0
 70
   128
 71
    16
 72
    13
 73
    14
  0
VERTEX
  5
48F
330
28C
100
AcDbEntity
  8
0
 62
     9
100
AcDbFaceRecord
 10
0.0
 20
0.0
 30
0.0
 70
   128
 71
    16
 72
    14
 73
    15
  0
VERTEX
  5
490
330
28C
100
AcDbEntity
  8
0
 62
     9
100
AcDbFaceRecord
 10
0.0
 20
0.0
 30
0.0
 70
   128
 71
    18
 72
    16
 73
    17
  0
VERTEX
  5
491
330
28C
100
AcDbEntity
  8
0
 62
     9
100
AcDbFaceRecord
 10
0.0
 20
0.0
 30
0.0
 70
   128
 71
    21
 72
    18
 73
    19
  0
VERTEX
  5
492
330
28C
100
AcDbEntity
  8
0
 62
     9
100
AcDbFaceRecord
 10
0.0
 20
0.0
 30
0.0
 70
   128
 71
    21
 72
    19
 73
    20
  0
VERTEX
  5
493
330
28C
100
AcDbEntity
  8
0
 62
     9
100
AcDbFaceRecord
 10
0.0
 20
0.0
 30
0.0
 70
   128
 71
     1
 72
    22
 73
    24
  0
VERTEX
  5
494
330
28C
100
AcDbEntity
  8
0
 62
     9
100
AcDbFaceRecord
 10
0.0
 20
0.0
 30
0.0
 70
   128
 71
    24
 72
    22
 73
    23
  0
VERTEX
  5
495
330
28C
100
AcDbEntity
  8
0
 62
     9
100
AcDbFaceRecord
 10
0.0
 20
0.0
 30
0.0
 70
   128
 71
    25
 72
    26
 73
    45
  0
VERTEX
  5
496
330
28C
100
AcDbEntity
  8
0
 62
     9
100
AcDbFaceRecord
 10
0.0
 20
0.0
 30
0.0
 70
   128
 71
    45
 72
    26
 73
    28
  0
VERTEX
  5
497
330
28C
100
AcDbEntity
  8
0
 62
     9
100
AcDbFaceRecord
 10
0.0
 20
0.0
 30
0.0
 70
   128
 71
    28
 72
    26
 73
    27
  0
VERTEX
  5
498
330
28C
100
AcDbEntity
  8
0
 62
     9
100
AcDbFaceRecord
 10
0.0
 20
0.0
 30
0.0
 70
   128
 71
    45
 72
    28
 73
    34
  0
VERTEX
  5
499
330
28C
100
AcDbEntity
  8
0
 62
     9
100
AcDbFaceRecord
 10
0.0
 20
0.0
 30
0.0
 70
   128
 71
    34
 72
    28
 73
    31
  0
VERTEX
  5
49A
330
28C
100
AcDbEntity
  8
0
 62
     9
100
AcDbFaceRecord
 10
0.0
 20
0.0
 30
0.0
 70
   128
 71
    31
 72
    28
 73
    29
  0
VERTEX
  5
49B
330
28C
100
AcDbEntity
  8
0
 62
     9
100
AcDbFaceRecord
 10
0.0
 20
0.0
 30
0.0
 70
   128
 71
    31
 72
    29
 73
    30
  0
VERTEX
  5
49C
330
28C
100
AcDbEntity
  8
0
 62
     9
100
AcDbFaceRecord
 10
0.0
 20
0.0
 30
0.0
 70
   128
 71
    34
 72
    31
 73
    33
  0
VERTEX
  5
49D
330
28C
100
AcDbEntity
  8
0
 62
     9
100
AcDbFaceRecord
 10
0.0
 20
0.0
 30
0.0
 70
   128
 71
    33
 72
    31
 73
    32
  0
VERTEX
  5
49E
330
28C
100
AcDbEntity
  8
0
 62
     9
100
AcDbFaceRecord
 10
0.0
 20
0.0
 30
0.0
 70
   128
 71
    45
 72
    34
 73
    39
  0
VERTEX
  5
49F
330
28C
100
AcDbEntity
  8
0
 62
     9
100
AcDbFaceRecord
 10
0.0
 20
0.0
 30
0.0
 70
   128
 71
    39
 72
    34
 73
    37
  0
VERTEX
  5
4A0
330
28C
100
AcDbEntity
  8
0
 62
     9
100
AcDbFaceRecord
 10
0.0
 20
0.0
 30
0.0
 70
   128
 71
    37
 72
    34
 73
    36
  0
VERTEX
  5
4A1
330
28C
100
AcDbEntity
  8
0
 62
     9
100
AcDbFaceRecord
 10
0.0
 20
0.0
 30
0.0
 70
   128
 71
    36
 72
    34
 73
    35
  0
VERTEX
  5
4A2
330
28C
100
AcDbEntity
  8
0
 62
     9
100
AcDbFaceRecord
 10
0.0
 20
0.0
 30
0.0
 70
   128
 71
    39
 72
    37
 73
    38
  0
VERTEX
  5
4A3
330
28C
100
AcDbEntity
  8
0
 62
     9
100
AcDbFaceRecord
 10
0.0
 20
0.0
 30
0.0
 70
   128
 71
    45
 72
    39
 73
    40
  0
VERTEX
  5
4A4
330
28C
100
AcDbEntity
  8
0
 62
     9
100
AcDbFaceRecord
 10
0.0
 20
0.0
 30
0.0
 70
   128
 71
    45
 72
    40
 73
    42
  0
VERTEX
  5
4A5
330
28C
100
AcDbEntity
  8
0
 62
     9
100
AcDbFaceRecord
 10
0.0
 20
0.0
 30
0.0
 70
   128
 71
    42
 72
    40
 73
    41
  0
VERTEX
  5
4A6
330
28C
100
AcDbEntity
  8
0
 62
     9
100
AcDbFaceRecord
 10
0.0
 20
0.0
 30
0.0
 70
   128
 71
    45
 72
    42
 73
    44
  0
VERTEX
  5
4A7
330
28C
100
AcDbEntity
  8
0
 62
     9
100
AcDbFaceRecord
 10
0.0
 20
0.0
 30
0.0
 70
   128
 71
    44
 72
    42
 73
    43
  0
VERTEX
  5
4A8
330
28C
100
AcDbEntity
  8
0
 62
     9
100
AcDbFaceRecord
 10
0.0
 20
0.0
 30
0.0
 70
   128
 71
    25
 72
    45
 73
    48
  0
VERTEX
  5
4A9
330
28C
100
AcDbEntity
  8
0
 62
     9
100
AcDbFaceRecord
 10
0.0
 20
0.0
 30
0.0
 70
   128
 71
    48
 72
    45
 73
    47
  0
VERTEX
  5
4AA
330
28C
100
AcDbEntity
  8
0
 62
     9
100
AcDbFaceRecord
 10
0.0
 20
0.0
 30
0.0
 70
   128
 71
    47
 72
    45
 73
    46
  0
VERTEX
  5
4AB
330
28C
100
AcDbEntity
  8
0
 62
     9
100
AcDbFaceRecord
 10
0.0
 20
0.0
 30
0.0
 70
   128
 71
    49
 72
    50
 73
    72
  0
VERTEX
  5
4AC
330
28C
100
AcDbEntity
  8
0
 62
     9
100
AcDbFaceRecord
 10
0.0
 20
0.0
 30
0.0
 70
   128
 71
    72
 72
    50
 73
    71
  0
VERTEX
  5
4AD
330
28C
100
AcDbEntity
  8
0
 62
     9
100
AcDbFaceRecord
 10
0.0
 20
0.0
 30
0.0
 70
   128
 71
    71
 72
    50
 73
    51
  0
VERTEX
  5
4AE
330
28C
100
AcDbEntity
  8
0
 62
     9
100
AcDbFaceRecord
 10
0.0
 20
0.0
 30
0.0
 70
   128
 71
    71
 72
    51
 73
    70
  0
VERTEX
  5
4AF
330
28C
100
AcDbEntity
  8
0
 62
     9
100
AcDbFaceRecord
 10
0.0
 20
0.0
 30
0.0
 70
   128
 71
    70
 72
    51
 73
    69
  0
VERTEX
  5
4B0
330
28C
100
AcDbEntity
  8
0
 62
     9
100
AcDbFaceRecord
 10
0.0
 20
0.0
 30
0.0
 70
   128
 71
    69
 72
    51
 73
    52
  0
VERTEX
  5
4B1
330
28C
100
AcDbEntity
  8
0
 62
     9
100
AcDbFaceRecord
 10
0.0
 20
0.0
 30
0.0
 70
   128
 71
    69
 72
    52
 73
    68
  0
VERTEX
  5
4B2
330
28C
100
AcDbEntity
  8
0
 62
     9
100
AcDbFaceRecord
 10
0.0
 20
0.0
 30
0.0
 70
   128
 71
    68
 72
    52
 73
    53
  0
VERTEX
  5
4B3
330
28C
100
AcDbEntity
  8
0
 62
     9
100
AcDbFaceRecord
 10
0.0
 20
0.0
 30
0.0
 70
   128
 71
    68
 72
    53
 73
    67
  0
VERTEX
  5
4B4
330
28C
100
AcDbEntity
  8
0
 62
     9
100
AcDbFaceRecord
 10
0.0
 20
0.0
 30
0.0
 70
   128
 71
    67
 72
    53
 73
    54
  0
VERTEX
  5
4B5
330
28C
100
AcDbEntity
  8
0
 62
     9
100
AcDbFaceRecord
 10
0.0
 20
0.0
 30
0.0
 70
   128
 71
    67
 72
    54
 73
    55
  0
VERTEX
  5
4B6
330
28C
100
AcDbEntity
  8
0
 62
     9
100
AcDbFaceRecord
 10
0.0
 20
0.0
 30
0.0
 70
   128
 71
    67
 72
    55
 73
    66
  0
VERTEX
  5
4B7
330
28C
100
AcDbEntity
  8
0
 62
     9
100
AcDbFaceRecord
 10
0.0
 20
0.0
 30
0.0
 70
   128
 71
    66
 72
    55
 73
    56
  0
VERTEX
  5
4B8
330
28C
100
AcDbEntity
  8
0
 62
     9
100
AcDbFaceRecord
 10
0.0
 20
0.0
 30
0.0
 70
   128
 71
    66
 72
    56
 73
    65
  0
VERTEX
  5
4B9
330
28C
100
AcDbEntity
  8
0
 62
     9
100
AcDbFaceRecord
 10
0.0
 20
0.0
 30
0.0
 70
   128
 71
    65
 72
    56
 73
    57
  0
VERTEX
  5
4BA
330
28C
100
AcDbEntity
  8
0
 62
     9
100
AcDbFaceRecord
 10
0.0
 20
0.0
 30
0.0
 70
   128
 71
    65
 72
    57
 73
    64
  0
VERTEX
  5
4BB
330
28C
100
AcDbEntity
  8
0
 62
     9
100
AcDbFaceRecord
 10
0.0
 20
0.0
 30
0.0
 70
   128
 71
    64
 72
    57
 73
    63
  0
VERTEX
  5
4BC
330
28C
100
AcDbEntity
  8
0
 62
     9
100
AcDbFaceRecord
 10
0.0
 20
0.0
 30
0.0
 70
   128
 71
    63
 72
    57
 73
    58
  0
VERTEX
  5
4BD
330
28C
100
AcDbEntity
  8
0
 62
     9
100
AcDbFaceRecord
 10
0.0
 20
0.0
 30
0.0
 70
   128
 71
    63
 72
    58
 73
    62
  0
VERTEX
  5
4BE
330
28C
100
AcDbEntity
  8
0
 62
     9
100
AcDbFaceRecord
 10
0.0
 20
0.0
 30
0.0
 70
   128
 71
    62
 72
    58
 73
    59
  0
VERTEX
  5
4BF
330
28C
100
AcDbEntity
  8
0
 62
     9
100
AcDbFaceRecord
 10
0.0
 20
0.0
 30
0.0
 70
   128
 71
    62
 72
    59
 73
    61
  0
VERTEX
  5
4C0
330
28C
100
AcDbEntity
  8
0
 62
     9
100
AcDbFaceRecord
 10
0.0
 20
0.0
 30
0.0
 70
   128
 71
    61
 72
    59
 73
    60
  0
VERTEX
  5
4C1
330
28C
100
AcDbEntity
  8
0
 62
     9
100
AcDbFaceRecord
 10
0.0
 20
0.0
 30
0.0
 70
   128
 71
    49
 72
    72
 73
    73
  0
VERTEX
  5
4C2
330
28C
100
AcDbEntity
  8
0
 62
     9
100
AcDbFaceRecord
 10
0.0
 20
0.0
 30
0.0
 70
   128
 71
    49
 72
    73
 73
    74
  0
VERTEX
  5
4C3
330
28C
100
AcDbEntity
  8
0
 62
     9
100
AcDbFaceRecord
 10
0.0
 20
0.0
 30
0.0
 70
   128
 71
    75
 72
    76
 73
    97
  0
VERTEX
  5
4C4
330
28C
100
AcDbEntity
  8
0
 62
     9
100
AcDbFaceRecord
 10
0.0
 20
0.0
 30
0.0
 70
   128
 71
    97
 72
    76
 73
    96
  0
VERTEX
  5
4C5
330
28C
100
AcDbEntity
  8
0
 62
     9
100
AcDbFaceRecord
 10
0.0
 20
0.0
 30
0.0
 70
   128
 71
    96
 72
    76
 73
    77
  0
VERTEX
  5
4C6
330
28C
100
AcDbEntity
  8
0
 62
     9
100
AcDbFaceRecord
 10
0.0
 20
0.0
 30
0.0
 70
   128
 71
    96
 72
    77
 73
    95
  0
VERTEX
  5
4C7
330
28C
100
AcDbEntity
  8
0
 62
     9
100
AcDbFaceRecord
 10
0.0
 20
0.0
 30
0.0
 70
   128
 71
    95
 72
    77
 73
    94
  0
VERTEX
  5
4C8
330
28C
100
AcDbEntity
  8
0
 62
     9
100
AcDbFaceRecord
 10
0.0
 20
0.0
 30
0.0
 70
   128
 71
    94
 72
    77
 73
    78
  0
VERTEX
  5
4C9
330
28C
100
AcDbEntity
  8
0
 62
     9
100
AcDbFaceRecord
 10
0.0
 20
0.0
 30
0.0
 70
   128
 71
    94
 72
    78
 73
    93
  0
VERTEX
  5
4CA
330
28C
100
AcDbEntity
  8
0
 62
     9
100
AcDbFaceRecord
 10
0.0
 20
0.0
 30
0.0
 70
   128
 71
    93
 72
    78
 73
    79
  0
VERTEX
  5
4CB
330
28C
100
AcDbEntity
  8
0
 62
     9
100
AcDbFaceRecord
 10
0.0
 20
0.0
 30
0.0
 70
   128
 71
    93
 72
    79
 73
    92
  0
VERTEX
  5
4CC
330
28C
100
AcDbEntity
  8
0
 62
     9
100
AcDbFaceRecord
 10
0.0
 20
0.0
 30
0.0
 70
   128
 71
    92
 72
    79
 73
    80
  0
VERTEX
  5
4CD
330
28C
100
AcDbEntity
  8
0
 62
     9
100
AcDbFaceRecord
 10
0.0
 20
0.0
 30
0.0
 70
   128
 71
    92
 72
    80
 73
    81
  0
VERTEX
  5
4CE
330
28C
100
AcDbEntity
  8
0
 62
     9
100
AcDbFaceRecord
 10
0.0
 20
0.0
 30
0.0
 70
   128
 71
    92
 72
    81
 73
    91
  0
VERTEX
  5
4CF
330
28C
100
AcDbEntity
  8
0
 62
     9
100
AcDbFaceRecord
 10
0.0
 20
0.0
 30
0.0
 70
   128
 71
    91
 72
    81
 73
    82
  0
VERTEX
  5
4D0
330
28C
100
AcDbEntity
  8
0
 62
     9
100
AcDbFaceRecord
 10
0.0
 20
0.0
 30
0.0
 70
   128
 71
    91
 72
    82
 73
    90
  0
VERTEX
  5
4D1
330
28C
100
AcDbEntity
  8
0
 62
     9
100
AcDbFaceRecord
 10
0.0
 20
0.0
 30
0.0
 70
   128
 71
    90
 72
    82
 73
    83
  0
VERTEX
  5
4D2
330
28C
100
AcDbEntity
  8
0
 62
     9
100
AcDbFaceRecord
 10
0.0
 20
0.0
 30
0.0
 70
   128
 71
    90
 72
    83
 73
    89
  0
VERTEX
  5
4D3
330
28C
100
AcDbEntity
  8
0
 62
     9
100
AcDbFaceRecord
 10
0.0
 20
0.0
 30
0.0
 70
   128
 71
    89
 72
    83
 73
    88
  0
VERTEX
  5
4D4
330
28C
100
AcDbEntity
  8
0
 62
     9
100
AcDbFaceRecord
 10
0.0
 20
0.0
 30
0.0
 70
   128
 71
    88
 72
    83
 73
    84
  0
VERTEX
  5
4D5
330
28C
100
AcDbEntity
  8
0
 62
     9
100
AcDbFaceRecord
 10
0.0
 20
0.0
 30
0.0
 70
   128
 71
    88
 72
    84
 73
    87
  0
VERTEX
  5
4D6
330
28C
100
AcDbEntity
  8
0
 62
     9
100
AcDbFaceRecord
 10
0.0
 20
0.0
 30
0.0
 70
   128
 71
    87
 72
    84
 73
    85
  0
VERTEX
  5
4D7
330
28C
100
AcDbEntity
  8
0
 62
     9
100
AcDbFaceRecord
 10
0.0
 20
0.0
 30
0.0
 70
   128
 71
    87
 72
    85
 73
    73
  0
VERTEX
  5
4D8
330
28C
100
AcDbEntity
  8
0
 62
     9
100
AcDbFaceRecord
 10
0.0
 20
0.0
 30
0.0
 70
   128
 71
    73
 72
    85
 73
    86
  0
VERTEX
  5
4D9
330
28C
100
AcDbEntity
  8
0
 62
     9
100
AcDbFaceRecord
 10
0.0
 20
0.0
 30
0.0
 70
   128
 71
    75
 72
    97
 73
    98
  0
VERTEX
  5
4DA
330
28C
100
AcDbEntity
  8
0
 62
     9
100
AcDbFaceRecord
 10
0.0
 20
0.0
 30
0.0
 70
   128
 71
    75
 72
    98
 73
    99
  0
VERTEX
  5
4DB
330
28C
100
AcDbEntity
  8
0
 62
     9
100
AcDbFaceRecord
 10
0.0
 20
0.0
 30
0.0
 70
   128
 71
   100
 72
   101
 73
   102
  0
VERTEX
  5
4DC
330
28C
100
AcDbEntity
  8
0
 62
     9
100
AcDbFaceRecord
 10
0.0
 20
0.0
 30
0.0
 70
   128
 71
   100
 72
   102
 73
   103
  0
VERTEX
  5
4DD
330
28C
100
AcDbEntity
  8
0
 62
     9
100
AcDbFaceRecord
 10
0.0
 20
0.0
 30
0.0
 70
   128
 71
   100
 72
   103
 73
   105
  0
VERTEX
  5
4DE
330
28C
100
AcDbEntity
  8
0
 62
     9
100
AcDbFaceRecord
 10
0.0
 20
0.0
 30
0.0
 70
   128
 71
   105
 72
   103
 73
   104
  0
VERTEX
  5
4DF
330
28C
100
AcDbEntity
  8
0
 62
     9
100
AcDbFaceRecord
 10
0.0
 20
0.0
 30
0.0
 70
   128
 71
   100
 72
   105
 73
   107
  0
VERTEX
  5
4E0
330
28C
100
AcDbEntity
  8
0
 62
     9
100
AcDbFaceRecord
 10
0.0
 20
0.0
 30
0.0
 70
   128
 71
   107
 72
   105
 73
   106
  0
VERTEX
  5
4E1
330
28C
100
AcDbEntity
  8
0
 62
     9
100
AcDbFaceRecord
 10
0.0
 20
0.0
 30
0.0
 70
   128
 71
   100
 72
   107
 73
   120
  0
VERTEX
  5
4E2
330
28C
100
AcDbEntity
  8
0
 62
     9
100
AcDbFaceRecord
 10
0.0
 20
0.0
 30
0.0
 70
   128
 71
   120
 72
   107
 73
   117
  0
VERTEX
  5
4E3
330
28C
100
AcDbEntity
  8
0
 62
     9
100
AcDbFaceRecord
 10
0.0
 20
0.0
 30
0.0
 70
   128
 71
   117
 72
   107
 73
   112
  0
VERTEX
  5
4E4
330
28C
100
AcDbEntity
  8
0
 62
     9
100
AcDbFaceRecord
 10
0.0
 20
0.0
 30
0.0
 70
   128
 71
   112
 72
   107
 73
   108
  0
VERTEX
  5
4E5
330
28C
100
AcDbEntity
  8
0
 62
     9
100
AcDbFaceRecord
 10
0.0
 20
0.0
 30
0.0
 70
   128
 71
   112
 72
   108
 73
   109
  0
VERTEX
  5
4E6
330
28C
100
AcDbEntity
  8
0
 62
     9
100
AcDbFaceRecord
 10
0.0
 20
0.0
 30
0.0
 70
   128
 71
   112
 72
   109
 73
   110
  0
VERTEX
  5
4E7
330
28C
100
AcDbEntity
  8
0
 62
     9
100
AcDbFaceRecord
 10
0.0
 20
0.0
 30
0.0
 70
   128
 71
   112
 72
   110
 73
   111
  0
VERTEX
  5
4E8
330
28C
100
AcDbEntity
  8
0
 62
     9
100
AcDbFaceRecord
 10
0.0
 20
0.0
 30
0.0
 70
   128
 71
   117
 72
   112
 73
   114
  0
VERTEX
  5
4E9
330
28C
100
AcDbEntity
  8
0
 62
     9
100
AcDbFaceRecord
 10
0.0
 20
0.0
 30
0.0
 70
   128
 71
   114
 72
   112
 73
   113
  0
VERTEX
  5
4EA
330
28C
100
AcDbEntity
  8
0
 62
     9
100
AcDbFaceRecord
 10
0.0
 20
0.0
 30
0.0
 70
   128
 71
   117
 72
   114
 73
   115
  0
VERTEX
  5
4EB
330
28C
100
AcDbEntity
  8
0
 62
     9
100
AcDbFaceRecord
 10
0.0
 20
0.0
 30
0.0
 70
   128
 71
   117
 72
   115
 73
   116
  0
VERTEX
  5
4EC
330
28C
100
AcDbEntity
  8
0
 62
     9
100
AcDbFaceRecord
 10
0.0
 20
0.0
 30
0.0
 70
   128
 71
   120
 72
   117
 73
   119
  0
VERTEX
  5
4ED
330
28C
100
AcDbEntity
  8
0
 62
     9
100
AcDbFaceRecord
 10
0.0
 20
0.0
 30
0.0
 70
   128
 71
   119
 72
   117
 73
   118
  0
VERTEX
  5
4EE
330
28C
100
AcDbEntity
  8
0
 62
     9
100
AcDbFaceRecord
 10
0.0
 20
0.0
 30
0.0
 70
   128
 71
   100
 72
   120
 73
   122
  0
VERTEX
  5
4EF
330
28C
100
AcDbEntity
  8
0
 62
     9
100
AcDbFaceRecord
 10
0.0
 20
0.0
 30
0.0
 70
   128
 71
   122
 72
   120
 73
   121
  0
VERTEX
  5
4F0
330
28C
100
AcDbEntity
  8
0
 62
     9
100
AcDbFaceRecord
 10
0.0
 20
0.0
 30
0.0
 70
   128
 71
   100
 72
   122
 73
   123
  0
VERTEX
  5
4F1
330
28C
100
AcDbEntity
  8
0
 62
     9
100
AcDbFaceRecord
 10
0.0
 20
0.0
 30
0.0
 70
   128
 71
   124
 72
   125
 73
   145
  0
VERTEX
  5
4F2
330
28C
100
AcDbEntity
  8
0
 62
     9
100
AcDbFaceRecord
 10
0.0
 20
0.0
 30
0.0
 70
   128
 71
   145
 72
   125
 73
   128
  0
VERTEX
  5
4F3
330
28C
100
AcDbEntity
  8
0
 62
     9
100
AcDbFaceRecord
 10
0.0
 20
0.0
 30
0.0
 70
   128
 71
   128
 72
   125
 73
   126
  0
VERTEX
  5
4F4
330
28C
100
AcDbEntity
  8
0
 62
     9
100
AcDbFaceRecord
 10
0.0
 20
0.0
 30
0.0
 70
   128
 71
   128
 72
   126
 73
   127
  0
VERTEX
  5
4F5
330
28C
100
AcDbEntity
  8
0
 62
     9
100
AcDbFaceRecord
 10
0.0
 20
0.0
 30
0.0
 70
   128
 71
   145
 72
   128
 73
   139
  0
VERTEX
  5
4F6
330
28C
100
AcDbEntity
  8
0
 62
     9
100
AcDbFaceRecord
 10
0.0
 20
0.0
 30
0.0
 70
   128
 71
   139
 72
   128
 73
   133
  0
VERTEX
  5
4F7
330
28C
100
AcDbEntity
  8
0
 62
     9
100
AcDbFaceRecord
 10
0.0
 20
0.0
 30
0.0
 70
   128
 71
   133
 72
   128
 73
   131
  0
VERTEX
  5
4F8
330
28C
100
AcDbEntity
  8
0
 62
     9
100
AcDbFaceRecord
 10
0.0
 20
0.0
 30
0.0
 70
   128
 71
   131
 72
   128
 73
   130
  0
VERTEX
  5
4F9
330
28C
100
AcDbEntity
  8
0
 62
     9
100
AcDbFaceRecord
 10
0.0
 20
0.0
 30
0.0
 70
   128
 71
   130
 72
   128
 73
   129
  0
VERTEX
  5
4FA
330
28C
100
AcDbEntity
  8
0
 62
     9
100
AcDbFaceRecord
 10
0.0
 20
0.0
 30
0.0
 70
   128
 71
   133
 72
   131
 73
   132
  0
VERTEX
  5
4FB
330
28C
100
AcDbEntity
  8
0
 62
     9
100
AcDbFaceRecord
 10
0.0
 20
0.0
 30
0.0
 70
   128
 71
   139
 72
   133
 73
   137
  0
VERTEX
  5
4FC
330
28C
100
AcDbEntity
  8
0
 62
     9
100
AcDbFaceRecord
 10
0.0
 20
0.0
 30
0.0
 70
   128
 71
   137
 72
   133
 73
   136
  0
VERTEX
  5
4FD
330
28C
100
AcDbEntity
  8
0
 62
     9
100
AcDbFaceRecord
 10
0.0
 20
0.0
 30
0.0
 70
   128
 71
   136
 72
   133
 73
   135
  0
VERTEX
  5
4FE
330
28C
100
AcDbEntity
  8
0
 62
     9
100
AcDbFaceRecord
 10
0.0
 20
0.0
 30
0.0
 70
   128
 71
   135
 72
   133
 73
   134
  0
VERTEX
  5
4FF
330
28C
100
AcDbEntity
  8
0
 62
     9
100
AcDbFaceRecord
 10
0.0
 20
0.0
 30
0.0
 70
   128
 71
   139
 72
   137
 73
   138
  0
VERTEX
  5
500
330
28C
100
AcDbEntity
  8
0
 62
     9
100
AcDbFaceRecord
 10
0.0
 20
0.0
 30
0.0
 70
   128
 71
   145
 72
   139
 73
   141
  0
VERTEX
  5
501
330
28C
100
AcDbEntity
  8
0
 62
     9
100
AcDbFaceRecord
 10
0.0
 20
0.0
 30
0.0
 70
   128
 71
   141
 72
   139
 73
   140
  0
VERTEX
  5
502
330
28C
100
AcDbEntity
  8
0
 62
     9
100
AcDbFaceRecord
 10
0.0
 20
0.0
 30
0.0
 70
   128
 71
   145
 72
   141
 73
   142
  0
VERTEX
  5
503
330
28C
100
AcDbEntity
  8
0
 62
     9
100
AcDbFaceRecord
 10
0.0
 20
0.0
 30
0.0
 70
   128
 71
   145
 72
   142
 73
   143
  0
VERTEX
  5
504
330
28C
100
AcDbEntity
  8
0
 62
     9
100
AcDbFaceRecord
 10
0.0
 20
0.0
 30
0.0
 70
   128
 71
   145
 72
   143
 73
   144
  0
VERTEX
  5
505
330
28C
100
AcDbEntity
  8
0
 62
     9
100
AcDbFaceRecord
 10
0.0
 20
0.0
 30
0.0
 70
   128
 71
   124
 72
   145
 73
   147
  0
VERTEX
  5
506
330
28C
100
AcDbEntity
  8
0
 62
     9
100
AcDbFaceRecord
 10
0.0
 20
0.0
 30
0.0
 70
   128
 71
   147
 72
   145
 73
   146
  0
VERTEX
  5
507
330
28C
100
AcDbEntity
  8
0
 62
     9
100
AcDbFaceRecord
 10
0.0
 20
0.0
 30
0.0
 70
   128
 71
   148
 72
   149
 73
   171
  0
VERTEX
  5
508
330
28C
100
AcDbEntity
  8
0
 62
     9
100
AcDbFaceRecord
 10
0.0
 20
0.0
 30
0.0
 70
   128
 71
   171
 72
   149
 73
   170
  0
VERTEX
  5
509
330
28C
100
AcDbEntity
  8
0
 62
     9
100
AcDbFaceRecord
 10
0.0
 20
0.0
 30
0.0
 70
   128
 71
   170
 72
   149
 73
   169
  0
VERTEX
  5
50A
330
28C
100
AcDbEntity
  8
0
 62
     9
100
AcDbFaceRecord
 10
0.0
 20
0.0
 30
0.0
 70
   128
 71
   169
 72
   149
 73
   150
  0
VERTEX
  5
50B
330
28C
100
AcDbEntity
  8
0
 62
     9
100
AcDbFaceRecord
 10
0.0
 20
0.0
 30
0.0
 70
   128
 71
   169
 72
   150
 73
   168
  0
VERTEX
  5
50C
330
28C
100
AcDbEntity
  8
0
 62
     9
100
AcDbFaceRecord
 10
0.0
 20
0.0
 30
0.0
 70
   128
 71
   168
 72
   150
 73
   151
  0
VERTEX
  5
50D
330
28C
100
AcDbEntity
  8
0
 62
     9
100
AcDbFaceRecord
 10
0.0
 20
0.0
 30
0.0
 70
   128
 71
   168
 72
   151
 73
   152
  0
VERTEX
  5
50E
330
28C
100
AcDbEntity
  8
0
 62
     9
100
AcDbFaceRecord
 10
0.0
 20
0.0
 30
0.0
 70
   128
 71
   168
 72
   152
 73
   167
  0
VERTEX
  5
50F
330
28C
100
AcDbEntity
  8
0
 62
     9
100
AcDbFaceRecord
 10
0.0
 20
0.0
 30
0.0
 70
   128
 71
   167
 72
   152
 73
   153
  0
VERTEX
  5
510
330
28C
100
AcDbEntity
  8
0
 62
     9
100
AcDbFaceRecord
 10
0.0
 20
0.0
 30
0.0
 70
   128
 71
   167
 72
   153
 73
   166
  0
VERTEX
  5
511
330
28C
100
AcDbEntity
  8
0
 62
     9
100
AcDbFaceRecord
 10
0.0
 20
0.0
 30
0.0
 70
   128
 71
   166
 72
   153
 73
   154
  0
VERTEX
  5
512
330
28C
100
AcDbEntity
  8
0
 62
     9
100
AcDbFaceRecord
 10
0.0
 20
0.0
 30
0.0
 70
   128
 71
   166
 72
   154
 73
   165
  0
VERTEX
  5
513
330
28C
100
AcDbEntity
  8
0
 62
     9
100
AcDbFaceRecord
 10
0.0
 20
0.0
 30
0.0
 70
   128
 71
   165
 72
   154
 73
   164
  0
VERTEX
  5
514
330
28C
100
AcDbEntity
  8
0
 62
     9
100
AcDbFaceRecord
 10
0.0
 20
0.0
 30
0.0
 70
   128
 71
   164
 72
   154
 73
   155
  0
VERTEX
  5
515
330
28C
100
AcDbEntity
  8
0
 62
     9
100
AcDbFaceRecord
 10
0.0
 20
0.0
 30
0.0
 70
   128
 71
   164
 72
   155
 73
   163
  0
VERTEX
  5
516
330
28C
100
AcDbEntity
  8
0
 62
     9
100
AcDbFaceRecord
 10
0.0
 20
0.0
 30
0.0
 70
   128
 71
   163
 72
   155
 73
   156
  0
VERTEX
  5
517
330
28C
100
AcDbEntity
  8
0
 62
     9
100
AcDbFaceRecord
 10
0.0
 20
0.0
 30
0.0
 70
   128
 71
   163
 72
   156
 73
   162
  0
VERTEX
  5
518
330
28C
100
AcDbEntity
  8
0
 62
     9
100
AcDbFaceRecord
 10
0.0
 20
0.0
 30
0.0
 70
   128
 71
   162
 72
   156
 73
   157
  0
VERTEX
  5
519
330
28C
100
AcDbEntity
  8
0
 62
     9
100
AcDbFaceRecord
 10
0.0
 20
0.0
 30
0.0
 70
   128
 71
   162
 72
   157
 73
   161
  0
VERTEX
  5
51A
330
28C
100
AcDbEntity
  8
0
 62
     9
100
AcDbFaceRecord
 10
0.0
 20
0.0
 30
0.0
 70
   128
 71
   161
 72
   157
 73
   158
  0
VERTEX
  5
51B
330
28C
100
AcDbEntity
  8
0
 62
     9
100
AcDbFaceRecord
 10
0.0
 20
0.0
 30
0.0
 70
   128
 71
   161
 72
   158
 73
   160
  0
VERTEX
  5
51C
330
28C
100
AcDbEntity
  8
0
 62
     9
100
AcDbFaceRecord
 10
0.0
 20
0.0
 30
0.0
 70
   128
 71
   160
 72
   158
 73
   159
  0
VERTEX
  5
51D
330
28C
100
AcDbEntity
  8
0
 62
     9
100
AcDbFaceRecord
 10
0.0
 20
0.0
 30
0.0
 70
   128
 71
   148
 72
   171
 73
   172
  0
VERTEX
  5
51E
330
28C
100
AcDbEntity
  8
0
 62
     9
100
AcDbFaceRecord
 10
0.0
 20
0.0
 30
0.0
 70
   128
 71
   148
 72
   172
 73
   173
  0
VERTEX
  5
51F
330
28C
100
AcDbEntity
  8
0
 62
     9
100
AcDbFaceRecord
 10
0.0
 20
0.0
 30
0.0
 70
   128
 71
   174
 72
   175
 73
   196
  0
VERTEX
  5
520
330
28C
100
AcDbEntity
  8
0
 62
     9
100
AcDbFaceRecord
 10
0.0
 20
0.0
 30
0.0
 70
   128
 71
   196
 72
   175
 73
   195
  0
VERTEX
  5
521
330
28C
100
AcDbEntity
  8
0
 62
     9
100
AcDbFaceRecord
 10
0.0
 20
0.0
 30
0.0
 70
   128
 71
   195
 72
   175
 73
   176
  0
VERTEX
  5
522
330
28C
100
AcDbEntity
  8
0
 62
     9
100
AcDbFaceRecord
 10
0.0
 20
0.0
 30
0.0
 70
   128
 71
   195
 72
   176
 73
   177
  0
VERTEX
  5
523
330
28C
100
AcDbEntity
  8
0
 62
     9
100
AcDbFaceRecord
 10
0.0
 20
0.0
 30
0.0
 70
   128
 71
   195
 72
   177
 73
   194
  0
VERTEX
  5
524
330
28C
100
AcDbEntity
  8
0
 62
     9
100
AcDbFaceRecord
 10
0.0
 20
0.0
 30
0.0
 70
   128
 71
   194
 72
   177
 73
   178
  0
VERTEX
  5
525
330
28C
100
AcDbEntity
  8
0
 62
     9
100
AcDbFaceRecord
 10
0.0
 20
0.0
 30
0.0
 70
   128
 71
   194
 72
   178
 73
   193
  0
VERTEX
  5
526
330
28C
100
AcDbEntity
  8
0
 62
     9
100
AcDbFaceRecord
 10
0.0
 20
0.0
 30
0.0
 70
   128
 71
   193
 72
   178
 73
   179
  0
VERTEX
  5
527
330
28C
100
AcDbEntity
  8
0
 62
     9
100
AcDbFaceRecord
 10
0.0
 20
0.0
 30
0.0
 70
   128
 71
   193
 72
   179
 73
   192
  0
VERTEX
  5
528
330
28C
100
AcDbEntity
  8
0
 62
     9
100
AcDbFaceRecord
 10
0.0
 20
0.0
 30
0.0
 70
   128
 71
   192
 72
   179
 73
   191
  0
VERTEX
  5
529
330
28C
100
AcDbEntity
  8
0
 62
     9
100
AcDbFaceRecord
 10
0.0
 20
0.0
 30
0.0
 70
   128
 71
   191
 72
   179
 73
   180
  0
VERTEX
  5
52A
330
28C
100
AcDbEntity
  8
0
 62
     9
100
AcDbFaceRecord
 10
0.0
 20
0.0
 30
0.0
 70
   128
 71
   191
 72
   180
 73
   190
  0
VERTEX
  5
52B
330
28C
100
AcDbEntity
  8
0
 62
     9
100
AcDbFaceRecord
 10
0.0
 20
0.0
 30
0.0
 70
   128
 71
   190
 72
   180
 73
   181
  0
VERTEX
  5
52C
330
28C
100
AcDbEntity
  8
0
 62
     9
100
AcDbFaceRecord
 10
0.0
 20
0.0
 30
0.0
 70
   128
 71
   190
 72
   181
 73
   189
  0
VERTEX
  5
52D
330
28C
100
AcDbEntity
  8
0
 62
     9
100
AcDbFaceRecord
 10
0.0
 20
0.0
 30
0.0
 70
   128
 71
   189
 72
   181
 73
   182
  0
VERTEX
  5
52E
330
28C
100
AcDbEntity
  8
0
 62
     9
100
AcDbFaceRecord
 10
0.0
 20
0.0
 30
0.0
 70
   128
 71
   189
 72
   182
 73
   188
  0
VERTEX
  5
52F
330
28C
100
AcDbEntity
  8
0
 62
     9
100
AcDbFaceRecord
 10
0.0
 20
0.0
 30
0.0
 70
   128
 71
   188
 72
   182
 73
   183
  0
VERTEX
  5
530
330
28C
100
AcDbEntity
  8
0
 62
     9
100
AcDbFaceRecord
 10
0.0
 20
0.0
 30
0.0
 70
   128
 71
   188
 72
   183
 73
   187
  0
VERTEX
  5
531
330
28C
100
AcDbEntity
  8
0
 62
     9
100
AcDbFaceRecord
 10
0.0
 20
0.0
 30
0.0
 70
   128
 71
   187
 72
   183
 73
   184
  0
VERTEX
  5
532
330
28C
100
AcDbEntity
  8
0
 62
     9
100
AcDbFaceRecord
 10
0.0
 20
0.0
 30
0.0
 70
   128
 71
   187
 72
   184
 73
   186
  0
VERTEX
  5
533
330
28C
100
AcDbEntity
  8
0
 62
     9
100
AcDbFaceRecord
 10
0.0
 20
0.0
 30
0.0
 70
   128
 71
   186
 72
   184
 73
   185
  0
VERTEX
  5
534
330
28C
100
AcDbEntity
  8
0
 62
     9
100
AcDbFaceRecord
 10
0.0
 20
0.0
 30
0.0
 70
   128
 71
   174
 72
   196
 73
   197
  0
VERTEX
  5
535
330
28C
100
AcDbEntity
  8
0
 62
     9
100
AcDbFaceRecord
 10
0.0
 20
0.0
 30
0.0
 70
   128
 71
   174
 72
   197
 73
   198
  0
VERTEX
  5
536
330
28C
100
AcDbEntity
  8
0
 62
     9
100
AcDbFaceRecord
 10
0.0
 20
0.0
 30
0.0
 70
   128
 71
   174
 72
   198
 73
   199
  0
VERTEX
  5
537
330
28C
100
AcDbEntity
  8
0
 62
     9
100
AcDbFaceRecord
 10
0.0
 20
0.0
 30
0.0
 70
   128
 71
   200
 72
   201
 73
   202
  0
VERTEX
  5
538
330
28C
100
AcDbEntity
  8
0
 62
     9
100
AcDbFaceRecord
 10
0.0
 20
0.0
 30
0.0
 70
   128
 71
   200
 72
   202
 73
   210
  0
VERTEX
  5
539
330
28C
100
AcDbEntity
  8
0
 62
     9
100
AcDbFaceRecord
 10
0.0
 20
0.0
 30
0.0
 70
   128
 71
   210
 72
   202
 73
   203
  0
VERTEX
  5
53A
330
28C
100
AcDbEntity
  8
0
 62
     9
100
AcDbFaceRecord
 10
0.0
 20
0.0
 30
0.0
 70
   128
 71
   210
 72
   203
 73
   205
  0
VERTEX
  5
53B
330
28C
100
AcDbEntity
  8
0
 62
     9
100
AcDbFaceRecord
 10
0.0
 20
0.0
 30
0.0
 70
   128
 71
   205
 72
   203
 73
   204
  0
VERTEX
  5
53C
330
28C
100
AcDbEntity
  8
0
 62
     9
100
AcDbFaceRecord
 10
0.0
 20
0.0
 30
0.0
 70
   128
 71
   210
 72
   205
 73
   207
  0
VERTEX
  5
53D
330
28C
100
AcDbEntity
  8
0
 62
     9
100
AcDbFaceRecord
 10
0.0
 20
0.0
 30
0.0
 70
   128
 71
   207
 72
   205
 73
   206
  0
VERTEX
  5
53E
330
28C
100
AcDbEntity
  8
0
 62
     9
100
AcDbFaceRecord
 10
0.0
 20
0.0
 30
0.0
 70
   128
 71
   210
 72
   207
 73
   208
  0
VERTEX
  5
53F
330
28C
100
AcDbEntity
  8
0
 62
     9
100
AcDbFaceRecord
 10
0.0
 20
0.0
 30
0.0
 70
   128
 71
   210
 72
   208
 73
   209
  0
VERTEX
  5
540
330
28C
100
AcDbEntity
  8
0
 62
     9
100
AcDbFaceRecord
 10
0.0
 20
0.0
 30
0.0
 70
   128
 71
   200
 72
   210
 73
   223
  0
VERTEX
  5
541
330
28C
100
AcDbEntity
  8
0
 62
     9
100
AcDbFaceRecord
 10
0.0
 20
0.0
 30
0.0
 70
   128
 71
   223
 72
   210
 73
   220
  0
VERTEX
  5
542
330
28C
100
AcDbEntity
  8
0
 62
     9
100
AcDbFaceRecord
 10
0.0
 20
0.0
 30
0.0
 70
   128
 71
   220
 72
   210
 73
   219
  0
VERTEX
  5
543
330
28C
100
AcDbEntity
  8
0
 62
     9
100
AcDbFaceRecord
 10
0.0
 20
0.0
 30
0.0
 70
   128
 71
   219
 72
   210
 73
   216
  0
VERTEX
  5
544
330
28C
100
AcDbEntity
  8
0
 62
     9
100
AcDbFaceRecord
 10
0.0
 20
0.0
 30
0.0
 70
   128
 71
   216
 72
   210
 73
   212
  0
VERTEX
  5
545
330
28C
100
AcDbEntity
  8
0
 62
     9
100
AcDbFaceRecord
 10
0.0
 20
0.0
 30
0.0
 70
   128
 71
   212
 72
   210
 73
   211
  0
VERTEX
  5
546
330
28C
100
AcDbEntity
  8
0
 62
     9
100
AcDbFaceRecord
 10
0.0
 20
0.0
 30
0.0
 70
   128
 71
   216
 72
   212
 73
   213
  0
VERTEX
  5
547
330
28C
100
AcDbEntity
  8
0
 62
     9
100
AcDbFaceRecord
 10
0.0
 20
0.0
 30
0.0
 70
   128
 71
   216
 72
   213
 73
   214
  0
VERTEX
  5
548
330
28C
100
AcDbEntity
  8
0
 62
     9
100
AcDbFaceRecord
 10
0.0
 20
0.0
 30
0.0
 70
   128
 71
   216
 72
   214
 73
   215
  0
VERTEX
  5
549
330
28C
100
AcDbEntity
  8
0
 62
     9
100
AcDbFaceRecord
 10
0.0
 20
0.0
 30
0.0
 70
   128
 71
   219
 72
   216
 73
   218
  0
VERTEX
  5
54A
330
28C
100
AcDbEntity
  8
0
 62
     9
100
AcDbFaceRecord
 10
0.0
 20
0.0
 30
0.0
 70
   128
 71
   218
 72
   216
 73
   217
  0
VERTEX
  5
54B
330
28C
100
AcDbEntity
  8
0
 62
     9
100
AcDbFaceRecord
 10
0.0
 20
0.0
 30
0.0
 70
   128
 71
   223
 72
   220
 73
   221
  0
VERTEX
  5
54C
330
28C
100
AcDbEntity
  8
0
 62
     9
100
AcDbFaceRecord
 10
0.0
 20
0.0
 30
0.0
 70
   128
 71
   223
 72
   221
 73
   222
  0
VERTEX
  5
54D
330
28C
100
AcDbEntity
  8
0
 62
     9
100
AcDbFaceRecord
 10
0.0
 20
0.0
 30
0.0
 70
   128
 71
   224
 72
   225
 73
   226
  0
VERTEX
  5
54E
330
28C
100
AcDbEntity
  8
0
 62
     9
100
AcDbFaceRecord
 10
0.0
 20
0.0
 30
0.0
 70
   128
 71
   224
 72
   226
 73
   247
  0
VERTEX
  5
54F
330
28C
100
AcDbEntity
  8
0
 62
     9
100
AcDbFaceRecord
 10
0.0
 20
0.0
 30
0.0
 70
   128
 71
   247
 72
   226
 73
   243
  0
VERTEX
  5
550
330
28C
100
AcDbEntity
  8
0
 62
     9
100
AcDbFaceRecord
 10
0.0
 20
0.0
 30
0.0
 70
   128
 71
   243
 72
   226
 73
   228
  0
VERTEX
  5
551
330
28C
100
AcDbEntity
  8
0
 62
     9
100
AcDbFaceRecord
 10
0.0
 20
0.0
 30
0.0
 70
   128
 71
   228
 72
   226
 73
   227
  0
VERTEX
  5
552
330
28C
100
AcDbEntity
  8
0
 62
     9
100
AcDbFaceRecord
 10
0.0
 20
0.0
 30
0.0
 70
   128
 71
   243
 72
   228
 73
   233
  0
VERTEX
  5
553
330
28C
100
AcDbEntity
  8
0
 62
     9
100
AcDbFaceRecord
 10
0.0
 20
0.0
 30
0.0
 70
   128
 71
   233
 72
   228
 73
   232
  0
VERTEX
  5
554
330
28C
100
AcDbEntity
  8
0
 62
     9
100
AcDbFaceRecord
 10
0.0
 20
0.0
 30
0.0
 70
   128
 71
   232
 72
   228
 73
   231
  0
VERTEX
  5
555
330
28C
100
AcDbEntity
  8
0
 62
     9
100
AcDbFaceRecord
 10
0.0
 20
0.0
 30
0.0
 70
   128
 71
   231
 72
   228
 73
   230
  0
VERTEX
  5
556
330
28C
100
AcDbEntity
  8
0
 62
     9
100
AcDbFaceRecord
 10
0.0
 20
0.0
 30
0.0
 70
   128
 71
   230
 72
   228
 73
   229
  0
VERTEX
  5
557
330
28C
100
AcDbEntity
  8
0
 62
     9
100
AcDbFaceRecord
 10
0.0
 20
0.0
 30
0.0
 70
   128
 71
   243
 72
   233
 73
   234
  0
VERTEX
  5
558
330
28C
100
AcDbEntity
  8
0
 62
     9
100
AcDbFaceRecord
 10
0.0
 20
0.0
 30
0.0
 70
   128
 71
   243
 72
   234
 73
   236
  0
VERTEX
  5
559
330
28C
100
AcDbEntity
  8
0
 62
     9
100
AcDbFaceRecord
 10
0.0
 20
0.0
 30
0.0
 70
   128
 71
   236
 72
   234
 73
   235
  0
VERTEX
  5
55A
330
28C
100
AcDbEntity
  8
0
 62
     9
100
AcDbFaceRecord
 10
0.0
 20
0.0
 30
0.0
 70
   128
 71
   243
 72
   236
 73
   239
  0
VERTEX
  5
55B
330
28C
100
AcDbEntity
  8
0
 62
     9
100
AcDbFaceRecord
 10
0.0
 20
0.0
 30
0.0
 70
   128
 71
   239
 72
   236
 73
   237
  0
VERTEX
  5
55C
330
28C
100
AcDbEntity
  8
0
 62
     9
100
AcDbFaceRecord
 10
0.0
 20
0.0
 30
0.0
 70
   128
 71
   239
 72
   237
 73
   238
  0
VERTEX
  5
55D
330
28C
100
AcDbEntity
  8
0
 62
     9
100
AcDbFaceRecord
 10
0.0
 20
0.0
 30
0.0
 70
   128
 71
   243
 72
   239
 73
   242
  0
VERTEX
  5
55E
330
28C
100
AcDbEntity
  8
0
 62
     9
100
AcDbFaceRecord
 10
0.0
 20
0.0
 30
0.0
 70
   128
 71
   242
 72
   239
 73
   241
  0
VERTEX
  5
55F
330
28C
100
AcDbEntity
  8
0
 62
     9
100
AcDbFaceRecord
 10
0.0
 20
0.0
 30
0.0
 70
   128
 71
   241
 72
   239
 73
   240
  0
VERTEX
  5
560
330
28C
100
AcDbEntity
  8
0
 62
     9
100
AcDbFaceRecord
 10
0.0
 20
0.0
 30
0.0
 70
   128
 71
   247
 72
   243
 73
   245
  0
VERTEX
  5
561
330
28C
100
AcDbEntity
  8
0
 62
     9
100
AcDbFaceRecord
 10
0.0
 20
0.0
 30
0.0
 70
   128
 71
   245
 72
   243
 73
   244
  0
VERTEX
  5
562
330
28C
100
AcDbEntity
  8
0
 62
     9
100
AcDbFaceRecord
 10
0.0
 20
0.0
 30
0.0
 70
   128
 71
   247
 72
   245
 73
   246
  0
VERTEX
  5
563
330
28C
100
AcDbEntity
  8
0
 62
     9
100
AcDbFaceRecord
 10
0.0
 20
0.0
 30
0.0
 70
   128
 71
   248
 72
   249
 73
   271
  0
VERTEX
  5
564
330
28C
100
AcDbEntity
  8
0
 62
     9
100
AcDbFaceRecord
 10
0.0
 20
0.0
 30
0.0
 70
   128
 71
   271
 72
   249
 73
   270
  0
VERTEX
  5
565
330
28C
100
AcDbEntity
  8
0
 62
     9
100
AcDbFaceRecord
 10
0.0
 20
0.0
 30
0.0
 70
   128
 71
   270
 72
   249
 73
   250
  0
VERTEX
  5
566
330
28C
100
AcDbEntity
  8
0
 62
     9
100
AcDbFaceRecord
 10
0.0
 20
0.0
 30
0.0
 70
   128
 71
   270
 72
   250
 73
   269
  0
VERTEX
  5
567
330
28C
100
AcDbEntity
  8
0
 62
     9
100
AcDbFaceRecord
 10
0.0
 20
0.0
 30
0.0
 70
   128
 71
   269
 72
   250
 73
   268
  0
VERTEX
  5
568
330
28C
100
AcDbEntity
  8
0
 62
     9
100
AcDbFaceRecord
 10
0.0
 20
0.0
 30
0.0
 70
   128
 71
   268
 72
   250
 73
   251
  0
VERTEX
  5
569
330
28C
100
AcDbEntity
  8
0
 62
     9
100
AcDbFaceRecord
 10
0.0
 20
0.0
 30
0.0
 70
   128
 71
   268
 72
   251
 73
   267
  0
VERTEX
  5
56A
330
28C
100
AcDbEntity
  8
0
 62
     9
100
AcDbFaceRecord
 10
0.0
 20
0.0
 30
0.0
 70
   128
 71
   267
 72
   251
 73
   252
  0
VERTEX
  5
56B
330
28C
100
AcDbEntity
  8
0
 62
     9
100
AcDbFaceRecord
 10
0.0
 20
0.0
 30
0.0
 70
   128
 71
   267
 72
   252
 73
   266
  0
VERTEX
  5
56C
330
28C
100
AcDbEntity
  8
0
 62
     9
100
AcDbFaceRecord
 10
0.0
 20
0.0
 30
0.0
 70
   128
 71
   266
 72
   252
 73
   253
  0
VERTEX
  5
56D
330
28C
100
AcDbEntity
  8
0
 62
     9
100
AcDbFaceRecord
 10
0.0
 20
0.0
 30
0.0
 70
   128
 71
   266
 72
   253
 73
   254
  0
VERTEX
  5
56E
330
28C
100
AcDbEntity
  8
0
 62
     9
100
AcDbFaceRecord
 10
0.0
 20
0.0
 30
0.0
 70
   128
 71
   266
 72
   254
 73
   265
  0
VERTEX
  5
56F
330
28C
100
AcDbEntity
  8
0
 62
     9
100
AcDbFaceRecord
 10
0.0
 20
0.0
 30
0.0
 70
   128
 71
   265
 72
   254
 73
   255
  0
VERTEX
  5
570
330
28C
100
AcDbEntity
  8
0
 62
     9
100
AcDbFaceRecord
 10
0.0
 20
0.0
 30
0.0
 70
   128
 71
   265
 72
   255
 73
   264
  0
VERTEX
  5
571
330
28C
100
AcDbEntity
  8
0
 62
     9
100
AcDbFaceRecord
 10
0.0
 20
0.0
 30
0.0
 70
   128
 71
   264
 72
   255
 73
   256
  0
VERTEX
  5
572
330
28C
100
AcDbEntity
  8
0
 62
     9
100
AcDbFaceRecord
 10
0.0
 20
0.0
 30
0.0
 70
   128
 71
   264
 72
   256
 73
   263
  0
VERTEX
  5
573
330
28C
100
AcDbEntity
  8
0
 62
     9
100
AcDbFaceRecord
 10
0.0
 20
0.0
 30
0.0
 70
   128
 71
   263
 72
   256
 73
   262
  0
VERTEX
  5
574
330
28C
100
AcDbEntity
  8
0
 62
     9
100
AcDbFaceRecord
 10
0.0
 20
0.0
 30
0.0
 70
   128
 71
   262
 72
   256
 73
   257
  0
VERTEX
  5
575
330
28C
100
AcDbEntity
  8
0
 62
     9
100
AcDbFaceRecord
 10
0.0
 20
0.0
 30
0.0
 70
   128
 71
   262
 72
   257
 73
   261
  0
VERTEX
  5
576
330
28C
100
AcDbEntity
  8
0
 62
     9
100
AcDbFaceRecord
 10
0.0
 20
0.0
 30
0.0
 70
   128
 71
   261
 72
   257
 73
   258
  0
VERTEX
  5
577
330
28C
100
AcDbEntity
  8
0
 62
     9
100
AcDbFaceRecord
 10
0.0
 20
0.0
 30
0.0
 70
   128
 71
   261
 72
   258
 73
   260
  0
VERTEX
  5
578
330
28C
100
AcDbEntity
  8
0
 62
     9
100
AcDbFaceRecord
 10
0.0
 20
0.0
 30
0.0
 70
   128
 71
   260
 72
   258
 73
   259
  0
VERTEX
  5
579
330
28C
100
AcDbEntity
  8
0
 62
     9
100
AcDbFaceRecord
 10
0.0
 20
0.0
 30
0.0
 70
   128
 71
   248
 72
   271
 73
   272
  0
VERTEX
  5
57A
330
28C
100
AcDbEntity
  8
0
 62
     9
100
AcDbFaceRecord
 10
0.0
 20
0.0
 30
0.0
 70
   128
 71
   248
 72
   272
 73
   273
  0
VERTEX
  5
57B
330
28C
100
AcDbEntity
  8
0
 62
     9
100
AcDbFaceRecord
 10
0.0
 20
0.0
 30
0.0
 70
   128
 71
   274
 72
   275
 73
   296
  0
VERTEX
  5
57C
330
28C
100
AcDbEntity
  8
0
 62
     9
100
AcDbFaceRecord
 10
0.0
 20
0.0
 30
0.0
 70
   128
 71
   296
 72
   275
 73
   295
  0
VERTEX
  5
57D
330
28C
100
AcDbEntity
  8
0
 62
     9
100
AcDbFaceRecord
 10
0.0
 20
0.0
 30
0.0
 70
   128
 71
   295
 72
   275
 73
   276
  0
VERTEX
  5
57E
330
28C
100
AcDbEntity
  8
0
 62
     9
100
AcDbFaceRecord
 10
0.0
 20
0.0
 30
0.0
 70
   128
 71
   295
 72
   276
 73
   294
  0
VERTEX
  5
57F
330
28C
100
AcDbEntity
  8
0
 62
     9
100
AcDbFaceRecord
 10
0.0
 20
0.0
 30
0.0
 70
   128
 71
   294
 72
   276
 73
   293
  0
VERTEX
  5
580
330
28C
100
AcDbEntity
  8
0
 62
     9
100
AcDbFaceRecord
 10
0.0
 20
0.0
 30
0.0
 70
   128
 71
   293
 72
   276
 73
   277
  0
VERTEX
  5
581
330
28C
100
AcDbEntity
  8
0
 62
     9
100
AcDbFaceRecord
 10
0.0
 20
0.0
 30
0.0
 70
   128
 71
   293
 72
   277
 73
   292
  0
VERTEX
  5
582
330
28C
100
AcDbEntity
  8
0
 62
     9
100
AcDbFaceRecord
 10
0.0
 20
0.0
 30
0.0
 70
   128
 71
   292
 72
   277
 73
   278
  0
VERTEX
  5
583
330
28C
100
AcDbEntity
  8
0
 62
     9
100
AcDbFaceRecord
 10
0.0
 20
0.0
 30
0.0
 70
   128
 71
   292
 72
   278
 73
   291
  0
VERTEX
  5
584
330
28C
100
AcDbEntity
  8
0
 62
     9
100
AcDbFaceRecord
 10
0.0
 20
0.0
 30
0.0
 70
   128
 71
   291
 72
   278
 73
   279
  0
VERTEX
  5
585
330
28C
100
AcDbEntity
  8
0
 62
     9
100
AcDbFaceRecord
 10
0.0
 20
0.0
 30
0.0
 70
   128
 71
   291
 72
   279
 73
   280
  0
VERTEX
  5
586
330
28C
100
AcDbEntity
  8
0
 62
     9
100
AcDbFaceRecord
 10
0.0
 20
0.0
 30
0.0
 70
   128
 71
   291
 72
   280
 73
   290
  0
VERTEX
  5
587
330
28C
100
AcDbEntity
  8
0
 62
     9
100
AcDbFaceRecord
 10
0.0
 20
0.0
 30
0.0
 70
   128
 71
   290
 72
   280
 73
   281
  0
VERTEX
  5
588
330
28C
100
AcDbEntity
  8
0
 62
     9
100
AcDbFaceRecord
 10
0.0
 20
0.0
 30
0.0
 70
   128
 71
   290
 72
   281
 73
   289
  0
VERTEX
  5
589
330
28C
100
AcDbEntity
  8
0
 62
     9
100
AcDbFaceRecord
 10
0.0
 20
0.0
 30
0.0
 70
   128
 71
   289
 72
   281
 73
   282
  0
VERTEX
  5
58A
330
28C
100
AcDbEntity
  8
0
 62
     9
100
AcDbFaceRecord
 10
0.0
 20
0.0
 30
0.0
 70
   128
 71
   289
 72
   282
 73
   288
  0
VERTEX
  5
58B
330
28C
100
AcDbEntity
  8
0
 62
     9
100
AcDbFaceRecord
 10
0.0
 20
0.0
 30
0.0
 70
   128
 71
   288
 72
   282
 73
   287
  0
VERTEX
  5
58C
330
28C
100
AcDbEntity
  8
0
 62
     9
100
AcDbFaceRecord
 10
0.0
 20
0.0
 30
0.0
 70
   128
 71
   287
 72
   282
 73
   283
  0
VERTEX
  5
58D
330
28C
100
AcDbEntity
  8
0
 62
     9
100
AcDbFaceRecord
 10
0.0
 20
0.0
 30
0.0
 70
   128
 71
   287
 72
   283
 73
   286
  0
VERTEX
  5
58E
330
28C
100
AcDbEntity
  8
0
 62
     9
100
AcDbFaceRecord
 10
0.0
 20
0.0
 30
0.0
 70
   128
 71
   286
 72
   283
 73
   284
  0
VERTEX
  5
58F
330
28C
100
AcDbEntity
  8
0
 62
     9
100
AcDbFaceRecord
 10
0.0
 20
0.0
 30
0.0
 70
   128
 71
   286
 72
   284
 73
   272
  0
VERTEX
  5
590
330
28C
100
AcDbEntity
  8
0
 62
     9
100
AcDbFaceRecord
 10
0.0
 20
0.0
 30
0.0
 70
   128
 71
   272
 72
   284
 73
   285
  0
VERTEX
  5
591
330
28C
100
AcDbEntity
  8
0
 62
     9
100
AcDbFaceRecord
 10
0.0
 20
0.0
 30
0.0
 70
   128
 71
   274
 72
   296
 73
   297
  0
VERTEX
  5
592
330
28C
100
AcDbEntity
  8
0
 62
     9
100
AcDbFaceRecord
 10
0.0
 20
0.0
 30
0.0
 70
   128
 71
   274
 72
   297
 73
   298
  0
VERTEX
  5
593
330
28C
100
AcDbEntity
  8
0
 62
     9
100
AcDbFaceRecord
 10
0.0
 20
0.0
 30
0.0
 70
   128
 71
   299
 72
   300
 73
   302
  0
VERTEX
  5
594
330
28C
100
AcDbEntity
  8
0
 62
     9
100
AcDbFaceRecord
 10
0.0
 20
0.0
 30
0.0
 70
   128
 71
   302
 72
   300
 73
   301
  0
VERTEX
  5
595
330
28C
100
AcDbEntity
  8
0
 62
     9
100
AcDbFaceRecord
 10
0.0
 20
0.0
 30
0.0
 70
   128
 71
   299
 72
   302
 73
   319
  0
VERTEX
  5
596
330
28C
100
AcDbEntity
  8
0
 62
     9
100
AcDbFaceRecord
 10
0.0
 20
0.0
 30
0.0
 70
   128
 71
   319
 72
   302
 73
   306
  0
VERTEX
  5
597
330
28C
100
AcDbEntity
  8
0
 62
     9
100
AcDbFaceRecord
 10
0.0
 20
0.0
 30
0.0
 70
   128
 71
   306
 72
   302
 73
   304
  0
VERTEX
  5
598
330
28C
100
AcDbEntity
  8
0
 62
     9
100
AcDbFaceRecord
 10
0.0
 20
0.0
 30
0.0
 70
   128
 71
   304
 72
   302
 73
   303
  0
VERTEX
  5
599
330
28C
100
AcDbEntity
  8
0
 62
     9
100
AcDbFaceRecord
 10
0.0
 20
0.0
 30
0.0
 70
   128
 71
   306
 72
   304
 73
   305
  0
VERTEX
  5
59A
330
28C
100
AcDbEntity
  8
0
 62
     9
100
AcDbFaceRecord
 10
0.0
 20
0.0
 30
0.0
 70
   128
 71
   319
 72
   306
 73
   315
  0
VERTEX
  5
59B
330
28C
100
AcDbEntity
  8
0
 62
     9
100
AcDbFaceRecord
 10
0.0
 20
0.0
 30
0.0
 70
   128
 71
   315
 72
   306
 73
   311
  0
VERTEX
  5
59C
330
28C
100
AcDbEntity
  8
0
 62
     9
100
AcDbFaceRecord
 10
0.0
 20
0.0
 30
0.0
 70
   128
 71
   311
 72
   306
 73
   308
  0
VERTEX
  5
59D
330
28C
100
AcDbEntity
  8
0
 62
     9
100
AcDbFaceRecord
 10
0.0
 20
0.0
 30
0.0
 70
   128
 71
   308
 72
   306
 73
   307
  0
VERTEX
  5
59E
330
28C
100
AcDbEntity
  8
0
 62
     9
100
AcDbFaceRecord
 10
0.0
 20
0.0
 30
0.0
 70
   128
 71
   311
 72
   308
 73
   309
  0
VERTEX
  5
59F
330
28C
100
AcDbEntity
  8
0
 62
     9
100
AcDbFaceRecord
 10
0.0
 20
0.0
 30
0.0
 70
   128
 71
   311
 72
   309
 73
   310
  0
VERTEX
  5
5A0
330
28C
100
AcDbEntity
  8
0
 62
     9
100
AcDbFaceRecord
 10
0.0
 20
0.0
 30
0.0
 70
   128
 71
   315
 72
   311
 73
   314
  0
VERTEX
  5
5A1
330
28C
100
AcDbEntity
  8
0
 62
     9
100
AcDbFaceRecord
 10
0.0
 20
0.0
 30
0.0
 70
   128
 71
   314
 72
   311
 73
   312
  0
VERTEX
  5
5A2
330
28C
100
AcDbEntity
  8
0
 62
     9
100
AcDbFaceRecord
 10
0.0
 20
0.0
 30
0.0
 70
   128
 71
   314
 72
   312
 73
   313
  0
VERTEX
  5
5A3
330
28C
100
AcDbEntity
  8
0
 62
     9
100
AcDbFaceRecord
 10
0.0
 20
0.0
 30
0.0
 70
   128
 71
   319
 72
   315
 73
   318
  0
VERTEX
  5
5A4
330
28C
100
AcDbEntity
  8
0
 62
     9
100
AcDbFaceRecord
 10
0.0
 20
0.0
 30
0.0
 70
   128
 71
   318
 72
   315
 73
   316
  0
VERTEX
  5
5A5
330
28C
100
AcDbEntity
  8
0
 62
     9
100
AcDbFaceRecord
 10
0.0
 20
0.0
 30
0.0
 70
   128
 71
   318
 72
   316
 73
   317
  0
VERTEX
  5
5A6
330
28C
100
AcDbEntity
  8
0
 62
     9
100
AcDbFaceRecord
 10
0.0
 20
0.0
 30
0.0
 70
   128
 71
   299
 72
   319
 73
   320
  0
VERTEX
  5
5A7
330
28C
100
AcDbEntity
  8
0
 62
     9
100
AcDbFaceRecord
 10
0.0
 20
0.0
 30
0.0
 70
   128
 71
   299
 72
   320
 73
   321
  0
VERTEX
  5
5A8
330
28C
100
AcDbEntity
  8
0
 62
     9
100
AcDbFaceRecord
 10
0.0
 20
0.0
 30
0.0
 70
   128
 71
   299
 72
   321
 73
   322
  0
VERTEX
  5
5A9
330
28C
100
AcDbEntity
  8
0
 62
     9
100
AcDbFaceRecord
 10
0.0
 20
0.0
 30
0.0
 70
   128
 71
   323
 72
   324
 73
   325
  0
VERTEX
  5
5AA
330
28C
100
AcDbEntity
  8
0
 62
     9
100
AcDbFaceRecord
 10
0.0
 20
0.0
 30
0.0
 70
   128
 71
   323
 72
   325
 73
   346
  0
VERTEX
  5
5AB
330
28C
100
AcDbEntity
  8
0
 62
     9
100
AcDbFaceRecord
 10
0.0
 20
0.0
 30
0.0
 70
   128
 71
   346
 72
   325
 73
   326
  0
VERTEX
  5
5AC
330
28C
100
AcDbEntity
  8
0
 62
     9
100
AcDbFaceRecord
 10
0.0
 20
0.0
 30
0.0
 70
   128
 71
   346
 72
   326
 73
   332
  0
VERTEX
  5
5AD
330
28C
100
AcDbEntity
  8
0
 62
     9
100
AcDbFaceRecord
 10
0.0
 20
0.0
 30
0.0
 70
   128
 71
   332
 72
   326
 73
   327
  0
VERTEX
  5
5AE
330
28C
100
AcDbEntity
  8
0
 62
     9
100
AcDbFaceRecord
 10
0.0
 20
0.0
 30
0.0
 70
   128
 71
   332
 72
   327
 73
   329
  0
VERTEX
  5
5AF
330
28C
100
AcDbEntity
  8
0
 62
     9
100
AcDbFaceRecord
 10
0.0
 20
0.0
 30
0.0
 70
   128
 71
   329
 72
   327
 73
   328
  0
VERTEX
  5
5B0
330
28C
100
AcDbEntity
  8
0
 62
     9
100
AcDbFaceRecord
 10
0.0
 20
0.0
 30
0.0
 70
   128
 71
   332
 72
   329
 73
   330
  0
VERTEX
  5
5B1
330
28C
100
AcDbEntity
  8
0
 62
     9
100
AcDbFaceRecord
 10
0.0
 20
0.0
 30
0.0
 70
   128
 71
   332
 72
   330
 73
   331
  0
VERTEX
  5
5B2
330
28C
100
AcDbEntity
  8
0
 62
     9
100
AcDbFaceRecord
 10
0.0
 20
0.0
 30
0.0
 70
   128
 71
   346
 72
   332
 73
   341
  0
VERTEX
  5
5B3
330
28C
100
AcDbEntity
  8
0
 62
     9
100
AcDbFaceRecord
 10
0.0
 20
0.0
 30
0.0
 70
   128
 71
   341
 72
   332
 73
   338
  0
VERTEX
  5
5B4
330
28C
100
AcDbEntity
  8
0
 62
     9
100
AcDbFaceRecord
 10
0.0
 20
0.0
 30
0.0
 70
   128
 71
   338
 72
   332
 73
   335
  0
VERTEX
  5
5B5
330
28C
100
AcDbEntity
  8
0
 62
     9
100
AcDbFaceRecord
 10
0.0
 20
0.0
 30
0.0
 70
   128
 71
   335
 72
   332
 73
   334
  0
VERTEX
  5
5B6
330
28C
100
AcDbEntity
  8
0
 62
     9
100
AcDbFaceRecord
 10
0.0
 20
0.0
 30
0.0
 70
   128
 71
   334
 72
   332
 73
   333
  0
VERTEX
  5
5B7
330
28C
100
AcDbEntity
  8
0
 62
     9
100
AcDbFaceRecord
 10
0.0
 20
0.0
 30
0.0
 70
   128
 71
   338
 72
   335
 73
   336
  0
VERTEX
  5
5B8
330
28C
100
AcDbEntity
  8
0
 62
     9
100
AcDbFaceRecord
 10
0.0
 20
0.0
 30
0.0
 70
   128
 71
   338
 72
   336
 73
   337
  0
VERTEX
  5
5B9
330
28C
100
AcDbEntity
  8
0
 62
     9
100
AcDbFaceRecord
 10
0.0
 20
0.0
 30
0.0
 70
   128
 71
   341
 72
   338
 73
   340
  0
VERTEX
  5
5BA
330
28C
100
AcDbEntity
  8
0
 62
     9
100
AcDbFaceRecord
 10
0.0
 20
0.0
 30
0.0
 70
   128
 71
   340
 72
   338
 73
   339
  0
VERTEX
  5
5BB
330
28C
100
AcDbEntity
  8
0
 62
     9
100
AcDbFaceRecord
 10
0.0
 20
0.0
 30
0.0
 70
   128
 71
   346
 72
   341
 73
   342
  0
VERTEX
  5
5BC
330
28C
100
AcDbEntity
  8
0
 62
     9
100
AcDbFaceRecord
 10
0.0
 20
0.0
 30
0.0
 70
   128
 71
   346
 72
   342
 73
   345
  0
VERTEX
  5
5BD
330
28C
100
AcDbEntity
  8
0
 62
     9
100
AcDbFaceRecord
 10
0.0
 20
0.0
 30
0.0
 70
   128
 71
   345
 72
   342
 73
   344
  0
VERTEX
  5
5BE
330
28C
100
AcDbEntity
  8
0
 62
     9
100
AcDbFaceRecord
 10
0.0
 20
0.0
 30
0.0
 70
   128
 71
   344
 72
   342
 73
   343
  0
VERTEX
  5
5BF
330
28C
100
AcDbEntity
  8
0
 62
     9
100
AcDbFaceRecord
 10
0.0
 20
0.0
 30
0.0
 70
   128
 71
   347
 72
   348
 73
   370
  0
VERTEX
  5
5C0
330
28C
100
AcDbEntity
  8
0
 62
     9
100
AcDbFaceRecord
 10
0.0
 20
0.0
 30
0.0
 70
   128
 71
   370
 72
   348
 73
   369
  0
VERTEX
  5
5C1
330
28C
100
AcDbEntity
  8
0
 62
     9
100
AcDbFaceRecord
 10
0.0
 20
0.0
 30
0.0
 70
   128
 71
   369
 72
   348
 73
   368
  0
VERTEX
  5
5C2
330
28C
100
AcDbEntity
  8
0
 62
     9
100
AcDbFaceRecord
 10
0.0
 20
0.0
 30
0.0
 70
   128
 71
   368
 72
   348
 73
   349
  0
VERTEX
  5
5C3
330
28C
100
AcDbEntity
  8
0
 62
     9
100
AcDbFaceRecord
 10
0.0
 20
0.0
 30
0.0
 70
   128
 71
   368
 72
   349
 73
   367
  0
VERTEX
  5
5C4
330
28C
100
AcDbEntity
  8
0
 62
     9
100
AcDbFaceRecord
 10
0.0
 20
0.0
 30
0.0
 70
   128
 71
   367
 72
   349
 73
   350
  0
VERTEX
  5
5C5
330
28C
100
AcDbEntity
  8
0
 62
     9
100
AcDbFaceRecord
 10
0.0
 20
0.0
 30
0.0
 70
   128
 71
   367
 72
   350
 73
   351
  0
VERTEX
  5
5C6
330
28C
100
AcDbEntity
  8
0
 62
     9
100
AcDbFaceRecord
 10
0.0
 20
0.0
 30
0.0
 70
   128
 71
   367
 72
   351
 73
   366
  0
VERTEX
  5
5C7
330
28C
100
AcDbEntity
  8
0
 62
     9
100
AcDbFaceRecord
 10
0.0
 20
0.0
 30
0.0
 70
   128
 71
   366
 72
   351
 73
   352
  0
VERTEX
  5
5C8
330
28C
100
AcDbEntity
  8
0
 62
     9
100
AcDbFaceRecord
 10
0.0
 20
0.0
 30
0.0
 70
   128
 71
   366
 72
   352
 73
   365
  0
VERTEX
  5
5C9
330
28C
100
AcDbEntity
  8
0
 62
     9
100
AcDbFaceRecord
 10
0.0
 20
0.0
 30
0.0
 70
   128
 71
   365
 72
   352
 73
   353
  0
VERTEX
  5
5CA
330
28C
100
AcDbEntity
  8
0
 62
     9
100
AcDbFaceRecord
 10
0.0
 20
0.0
 30
0.0
 70
   128
 71
   365
 72
   353
 73
   364
  0
VERTEX
  5
5CB
330
28C
100
AcDbEntity
  8
0
 62
     9
100
AcDbFaceRecord
 10
0.0
 20
0.0
 30
0.0
 70
   128
 71
   364
 72
   353
 73
   363
  0
VERTEX
  5
5CC
330
28C
100
AcDbEntity
  8
0
 62
     9
100
AcDbFaceRecord
 10
0.0
 20
0.0
 30
0.0
 70
   128
 71
   363
 72
   353
 73
   354
  0
VERTEX
  5
5CD
330
28C
100
AcDbEntity
  8
0
 62
     9
100
AcDbFaceRecord
 10
0.0
 20
0.0
 30
0.0
 70
   128
 71
   363
 72
   354
 73
   362
  0
VERTEX
  5
5CE
330
28C
100
AcDbEntity
  8
0
 62
     9
100
AcDbFaceRecord
 10
0.0
 20
0.0
 30
0.0
 70
   128
 71
   362
 72
   354
 73
   355
  0
VERTEX
  5
5CF
330
28C
100
AcDbEntity
  8
0
 62
     9
100
AcDbFaceRecord
 10
0.0
 20
0.0
 30
0.0
 70
   128
 71
   362
 72
   355
 73
   361
  0
VERTEX
  5
5D0
330
28C
100
AcDbEntity
  8
0
 62
     9
100
AcDbFaceRecord
 10
0.0
 20
0.0
 30
0.0
 70
   128
 71
   361
 72
   355
 73
   356
  0
VERTEX
  5
5D1
330
28C
100
AcDbEntity
  8
0
 62
     9
100
AcDbFaceRecord
 10
0.0
 20
0.0
 30
0.0
 70
   128
 71
   361
 72
   356
 73
   360
  0
VERTEX
  5
5D2
330
28C
100
AcDbEntity
  8
0
 62
     9
100
AcDbFaceRecord
 10
0.0
 20
0.0
 30
0.0
 70
   128
 71
   360
 72
   356
 73
   357
  0
VERTEX
  5
5D3
330
28C
100
AcDbEntity
  8
0
 62
     9
100
AcDbFaceRecord
 10
0.0
 20
0.0
 30
0.0
 70
   128
 71
   360
 72
   357
 73
   359
  0
VERTEX
  5
5D4
330
28C
100
AcDbEntity
  8
0
 62
     9
100
AcDbFaceRecord
 10
0.0
 20
0.0
 30
0.0
 70
   128
 71
   359
 72
   357
 73
   358
  0
VERTEX
  5
5D5
330
28C
100
AcDbEntity
  8
0
 62
     9
100
AcDbFaceRecord
 10
0.0
 20
0.0
 30
0.0
 70
   128
 71
   347
 72
   370
 73
   371
  0
VERTEX
  5
5D6
330
28C
100
AcDbEntity
  8
0
 62
     9
100
AcDbFaceRecord
 10
0.0
 20
0.0
 30
0.0
 70
   128
 71
   347
 72
   371
 73
   372
  0
VERTEX
  5
5D7
330
28C
100
AcDbEntity
  8
0
 62
     9
100
AcDbFaceRecord
 10
0.0
 20
0.0
 30
0.0
 70
   128
 71
   373
 72
   374
 73
   395
  0
VERTEX
  5
5D8
330
28C
100
AcDbEntity
  8
0
 62
     9
100
AcDbFaceRecord
 10
0.0
 20
0.0
 30
0.0
 70
   128
 71
   395
 72
   374
 73
   394
  0
VERTEX
  5
5D9
330
28C
100
AcDbEntity
  8
0
 62
     9
100
AcDbFaceRecord
 10
0.0
 20
0.0
 30
0.0
 70
   128
 71
   394
 72
   374
 73
   375
  0
VERTEX
  5
5DA
330
28C
100
AcDbEntity
  8
0
 62
     9
100
AcDbFaceRecord
 10
0.0
 20
0.0
 30
0.0
 70
   128
 71
   394
 72
   375
 73
   376
  0
VERTEX
  5
5DB
330
28C
100
AcDbEntity
  8
0
 62
     9
100
AcDbFaceRecord
 10
0.0
 20
0.0
 30
0.0
 70
   128
 71
   394
 72
   376
 73
   393
  0
VERTEX
  5
5DC
330
28C
100
AcDbEntity
  8
0
 62
     9
100
AcDbFaceRecord
 10
0.0
 20
0.0
 30
0.0
 70
   128
 71
   393
 72
   376
 73
   377
  0
VERTEX
  5
5DD
330
28C
100
AcDbEntity
  8
0
 62
     9
100
AcDbFaceRecord
 10
0.0
 20
0.0
 30
0.0
 70
   128
 71
   393
 72
   377
 73
   392
  0
VERTEX
  5
5DE
330
28C
100
AcDbEntity
  8
0
 62
     9
100
AcDbFaceRecord
 10
0.0
 20
0.0
 30
0.0
 70
   128
 71
   392
 72
   377
 73
   378
  0
VERTEX
  5
5DF
330
28C
100
AcDbEntity
  8
0
 62
     9
100
AcDbFaceRecord
 10
0.0
 20
0.0
 30
0.0
 70
   128
 71
   392
 72
   378
 73
   391
  0
VERTEX
  5
5E0
330
28C
100
AcDbEntity
  8
0
 62
     9
100
AcDbFaceRecord
 10
0.0
 20
0.0
 30
0.0
 70
   128
 71
   391
 72
   378
 73
   390
  0
VERTEX
  5
5E1
330
28C
100
AcDbEntity
  8
0
 62
     9
100
AcDbFaceRecord
 10
0.0
 20
0.0
 30
0.0
 70
   128
 71
   390
 72
   378
 73
   379
  0
VERTEX
  5
5E2
330
28C
100
AcDbEntity
  8
0
 62
     9
100
AcDbFaceRecord
 10
0.0
 20
0.0
 30
0.0
 70
   128
 71
   390
 72
   379
 73
   389
  0
VERTEX
  5
5E3
330
28C
100
AcDbEntity
  8
0
 62
     9
100
AcDbFaceRecord
 10
0.0
 20
0.0
 30
0.0
 70
   128
 71
   389
 72
   379
 73
   380
  0
VERTEX
  5
5E4
330
28C
100
AcDbEntity
  8
0
 62
     9
100
AcDbFaceRecord
 10
0.0
 20
0.0
 30
0.0
 70
   128
 71
   389
 72
   380
 73
   388
  0
VERTEX
  5
5E5
330
28C
100
AcDbEntity
  8
0
 62
     9
100
AcDbFaceRecord
 10
0.0
 20
0.0
 30
0.0
 70
   128
 71
   388
 72
   380
 73
   381
  0
VERTEX
  5
5E6
330
28C
100
AcDbEntity
  8
0
 62
     9
100
AcDbFaceRecord
 10
0.0
 20
0.0
 30
0.0
 70
   128
 71
   388
 72
   381
 73
   387
  0
VERTEX
  5
5E7
330
28C
100
AcDbEntity
  8
0
 62
     9
100
AcDbFaceRecord
 10
0.0
 20
0.0
 30
0.0
 70
   128
 71
   387
 72
   381
 73
   382
  0
VERTEX
  5
5E8
330
28C
100
AcDbEntity
  8
0
 62
     9
100
AcDbFaceRecord
 10
0.0
 20
0.0
 30
0.0
 70
   128
 71
   387
 72
   382
 73
   386
  0
VERTEX
  5
5E9
330
28C
100
AcDbEntity
  8
0
 62
     9
100
AcDbFaceRecord
 10
0.0
 20
0.0
 30
0.0
 70
   128
 71
   386
 72
   382
 73
   383
  0
VERTEX
  5
5EA
330
28C
100
AcDbEntity
  8
0
 62
     9
100
AcDbFaceRecord
 10
0.0
 20
0.0
 30
0.0
 70
   128
 71
   386
 72
   383
 73
   385
  0
VERTEX
  5
5EB
330
28C
100
AcDbEntity
  8
0
 62
     9
100
AcDbFaceRecord
 10
0.0
 20
0.0
 30
0.0
 70
   128
 71
   385
 72
   383
 73
   384
  0
VERTEX
  5
5EC
330
28C
100
AcDbEntity
  8
0
 62
     9
100
AcDbFaceRecord
 10
0.0
 20
0.0
 30
0.0
 70
   128
 71
   373
 72
   395
 73
   396
  0
VERTEX
  5
5ED
330
28C
100
AcDbEntity
  8
0
 62
     9
100
AcDbFaceRecord
 10
0.0
 20
0.0
 30
0.0
 70
   128
 71
   373
 72
   396
 73
   397
  0
VERTEX
  5
5EE
330
28C
100
AcDbEntity
  8
0
 62
     9
100
AcDbFaceRecord
 10
0.0
 20
0.0
 30
0.0
 70
   128
 71
   373
 72
   397
 73
   398
  0
VERTEX
  5
5EF
330
28C
100
AcDbEntity
  8
0
 62
     9
100
AcDbFaceRecord
 10
0.0
 20
0.0
 30
0.0
 70
   128
 71
   399
 72
   400
 73
   401
  0
VERTEX
  5
5F0
330
28C
100
AcDbEntity
  8
0
 62
     9
100
AcDbFaceRecord
 10
0.0
 20
0.0
 30
0.0
 70
   128
 71
   399
 72
   401
 73
   421
  0
VERTEX
  5
5F1
330
28C
100
AcDbEntity
  8
0
 62
     9
100
AcDbFaceRecord
 10
0.0
 20
0.0
 30
0.0
 70
   128
 71
   421
 72
   401
 73
   402
  0
VERTEX
  5
5F2
330
28C
100
AcDbEntity
  8
0
 62
     9
100
AcDbFaceRecord
 10
0.0
 20
0.0
 30
0.0
 70
   128
 71
   421
 72
   402
 73
   420
  0
VERTEX
  5
5F3
330
28C
100
AcDbEntity
  8
0
 62
     9
100
AcDbFaceRecord
 10
0.0
 20
0.0
 30
0.0
 70
   128
 71
   420
 72
   402
 73
   405
  0
VERTEX
  5
5F4
330
28C
100
AcDbEntity
  8
0
 62
     9
100
AcDbFaceRecord
 10
0.0
 20
0.0
 30
0.0
 70
   128
 71
   405
 72
   402
 73
   403
  0
VERTEX
  5
5F5
330
28C
100
AcDbEntity
  8
0
 62
     9
100
AcDbFaceRecord
 10
0.0
 20
0.0
 30
0.0
 70
   128
 71
   405
 72
   403
 73
   404
  0
VERTEX
  5
5F6
330
28C
100
AcDbEntity
  8
0
 62
     9
100
AcDbFaceRecord
 10
0.0
 20
0.0
 30
0.0
 70
   128
 71
   420
 72
   405
 73
   406
  0
VERTEX
  5
5F7
330
28C
100
AcDbEntity
  8
0
 62
     9
100
AcDbFaceRecord
 10
0.0
 20
0.0
 30
0.0
 70
   128
 71
   420
 72
   406
 73
   407
  0
VERTEX
  5
5F8
330
28C
100
AcDbEntity
  8
0
 62
     9
100
AcDbFaceRecord
 10
0.0
 20
0.0
 30
0.0
 70
   128
 71
   420
 72
   407
 73
   419
  0
VERTEX
  5
5F9
330
28C
100
AcDbEntity
  8
0
 62
     9
100
AcDbFaceRecord
 10
0.0
 20
0.0
 30
0.0
 70
   128
 71
   419
 72
   407
 73
   411
  0
VERTEX
  5
5FA
330
28C
100
AcDbEntity
  8
0
 62
     9
100
AcDbFaceRecord
 10
0.0
 20
0.0
 30
0.0
 70
   128
 71
   411
 72
   407
 73
   410
  0
VERTEX
  5
5FB
330
28C
100
AcDbEntity
  8
0
 62
     9
100
AcDbFaceRecord
 10
0.0
 20
0.0
 30
0.0
 70
   128
 71
   410
 72
   407
 73
   409
  0
VERTEX
  5
5FC
330
28C
100
AcDbEntity
  8
0
 62
     9
100
AcDbFaceRecord
 10
0.0
 20
0.0
 30
0.0
 70
   128
 71
   409
 72
   407
 73
   408
  0
VERTEX
  5
5FD
330
28C
100
AcDbEntity
  8
0
 62
     9
100
AcDbFaceRecord
 10
0.0
 20
0.0
 30
0.0
 70
   128
 71
   419
 72
   411
 73
   413
  0
VERTEX
  5
5FE
330
28C
100
AcDbEntity
  8
0
 62
     9
100
AcDbFaceRecord
 10
0.0
 20
0.0
 30
0.0
 70
   128
 71
   413
 72
   411
 73
   412
  0
VERTEX
  5
5FF
330
28C
100
AcDbEntity
  8
0
 62
     9
100
AcDbFaceRecord
 10
0.0
 20
0.0
 30
0.0
 70
   128
 71
   419
 72
   413
 73
   415
  0
VERTEX
  5
600
330
28C
100
AcDbEntity
  8
0
 62
     9
100
AcDbFaceRecord
 10
0.0
 20
0.0
 30
0.0
 70
   128
 71
   415
 72
   413
 73
   414
  0
VERTEX
  5
601
330
28C
100
AcDbEntity
  8
0
 62
     9
100
AcDbFaceRecord
 10
0.0
 20
0.0
 30
0.0
 70
   128
 71
   419
 72
   415
 73
   417
  0
VERTEX
  5
602
330
28C
100
AcDbEntity
  8
0
 62
     9
100
AcDbFaceRecord
 10
0.0
 20
0.0
 30
0.0
 70
   128
 71
   417
 72
   415
 73
   416
  0
VERTEX
  5
603
330
28C
100
AcDbEntity
  8
0
 62
     9
100
AcDbFaceRecord
 10
0.0
 20
0.0
 30
0.0
 70
   128
 71
   419
 72
   417
 73
   418
  0
VERTEX
  5
604
330
28C
100
AcDbEntity
  8
0
 62
     9
100
AcDbFaceRecord
 10
0.0
 20
0.0
 30
0.0
 70
   128
 71
   399
 72
   421
 73
   422
  0
VERTEX
  5
605
330
28C
100
AcDbEntity
  8
0
 62
     9
100
AcDbFaceRecord
 10
0.0
 20
0.0
 30
0.0
 70
   128
 71
   423
 72
   424
 73
   425
  0
VERTEX
  5
606
330
28C
100
AcDbEntity
  8
0
 62
     9
100
AcDbFaceRecord
 10
0.0
 20
0.0
 30
0.0
 70
   128
 71
   423
 72
   425
 73
   427
  0
VERTEX
  5
607
330
28C
100
AcDbEntity
  8
0
 62
     9
100
AcDbFaceRecord
 10
0.0
 20
0.0
 30
0.0
 70
   128
 71
   427
 72
   425
 73
   426
  0
VERTEX
  5
608
330
28C
100
AcDbEntity
  8
0
 62
     9
100
AcDbFaceRecord
 10
0.0
 20
0.0
 30
0.0
 70
   128
 71
   423
 72
   427
 73
   428
  0
VERTEX
  5
609
330
28C
100
AcDbEntity
  8
0
 62
     9
100
AcDbFaceRecord
 10
0.0
 20
0.0
 30
0.0
 70
   128
 71
   423
 72
   428
 73
   446
  0
VERTEX
  5
60A
330
28C
100
AcDbEntity
  8
0
 62
     9
100
AcDbFaceRecord
 10
0.0
 20
0.0
 30
0.0
 70
   128
 71
   446
 72
   428
 73
   429
  0
VERTEX
  5
60B
330
28C
100
AcDbEntity
  8
0
 62
     9
100
AcDbFaceRecord
 10
0.0
 20
0.0
 30
0.0
 70
   128
 71
   446
 72
   429
 73
   438
  0
VERTEX
  5
60C
330
28C
100
AcDbEntity
  8
0
 62
     9
100
AcDbFaceRecord
 10
0.0
 20
0.0
 30
0.0
 70
   128
 71
   438
 72
   429
 73
   431
  0
VERTEX
  5
60D
330
28C
100
AcDbEntity
  8
0
 62
     9
100
AcDbFaceRecord
 10
0.0
 20
0.0
 30
0.0
 70
   128
 71
   431
 72
   429
 73
   430
  0
VERTEX
  5
60E
330
28C
100
AcDbEntity
  8
0
 62
     9
100
AcDbFaceRecord
 10
0.0
 20
0.0
 30
0.0
 70
   128
 71
   438
 72
   431
 73
   432
  0
VERTEX
  5
60F
330
28C
100
AcDbEntity
  8
0
 62
     9
100
AcDbFaceRecord
 10
0.0
 20
0.0
 30
0.0
 70
   128
 71
   438
 72
   432
 73
   435
  0
VERTEX
  5
610
330
28C
100
AcDbEntity
  8
0
 62
     9
100
AcDbFaceRecord
 10
0.0
 20
0.0
 30
0.0
 70
   128
 71
   435
 72
   432
 73
   433
  0
VERTEX
  5
611
330
28C
100
AcDbEntity
  8
0
 62
     9
100
AcDbFaceRecord
 10
0.0
 20
0.0
 30
0.0
 70
   128
 71
   435
 72
   433
 73
   434
  0
VERTEX
  5
612
330
28C
100
AcDbEntity
  8
0
 62
     9
100
AcDbFaceRecord
 10
0.0
 20
0.0
 30
0.0
 70
   128
 71
   438
 72
   435
 73
   437
  0
VERTEX
  5
613
330
28C
100
AcDbEntity
  8
0
 62
     9
100
AcDbFaceRecord
 10
0.0
 20
0.0
 30
0.0
 70
   128
 71
   437
 72
   435
 73
   436
  0
VERTEX
  5
614
330
28C
100
AcDbEntity
  8
0
 62
     9
100
AcDbFaceRecord
 10
0.0
 20
0.0
 30
0.0
 70
   128
 71
   446
 72
   438
 73
   440
  0
VERTEX
  5
615
330
28C
100
AcDbEntity
  8
0
 62
     9
100
AcDbFaceRecord
 10
0.0
 20
0.0
 30
0.0
 70
   128
 71
   440
 72
   438
 73
   439
  0
VERTEX
  5
616
330
28C
100
AcDbEntity
  8
0
 62
     9
100
AcDbFaceRecord
 10
0.0
 20
0.0
 30
0.0
 70
   128
 71
   446
 72
   440
 73
   442
  0
VERTEX
  5
617
330
28C
100
AcDbEntity
  8
0
 62
     9
100
AcDbFaceRecord
 10
0.0
 20
0.0
 30
0.0
 70
   128
 71
   442
 72
   440
 73
   441
  0
VERTEX
  5
618
330
28C
100
AcDbEntity
  8
0
 62
     9
100
AcDbFaceRecord
 10
0.0
 20
0.0
 30
0.0
 70
   128
 71
   446
 72
   442
 73
   443
  0
VERTEX
  5
619
330
28C
100
AcDbEntity
  8
0
 62
     9
100
AcDbFaceRecord
 10
0.0
 20
0.0
 30
0.0
 70
   128
 71
   446
 72
   443
 73
   445
  0
VERTEX
  5
61A
330
28C
100
AcDbEntity
  8
0
 62
     9
100
AcDbFaceRecord
 10
0.0
 20
0.0
 30
0.0
 70
   128
 71
   445
 72
   443
 73
   444
  0
VERTEX
  5
61B
330
28C
100
AcDbEntity
  8
0
 62
     9
100
AcDbFaceRecord
 10
0.0
 20
0.0
 30
0.0
 70
   128
 71
   447
 72
   448
 73
   470
  0
VERTEX
  5
61C
330
28C
100
AcDbEntity
  8
0
 62
     9
100
AcDbFaceRecord
 10
0.0
 20
0.0
 30
0.0
 70
   128
 71
   470
 72
   448
 73
   469
  0
VERTEX
  5
61D
330
28C
100
AcDbEntity
  8
0
 62
     9
100
AcDbFaceRecord
 10
0.0
 20
0.0
 30
0.0
 70
   128
 71
   469
 72
   448
 73
   468
  0
VERTEX
  5
61E
330
28C
100
AcDbEntity
  8
0
 62
     9
100
AcDbFaceRecord
 10
0.0
 20
0.0
 30
0.0
 70
   128
 71
   468
 72
   448
 73
   449
  0
VERTEX
  5
61F
330
28C
100
AcDbEntity
  8
0
 62
     9
100
AcDbFaceRecord
 10
0.0
 20
0.0
 30
0.0
 70
   128
 71
   468
 72
   449
 73
   467
  0
VERTEX
  5
620
330
28C
100
AcDbEntity
  8
0
 62
     9
100
AcDbFaceRecord
 10
0.0
 20
0.0
 30
0.0
 70
   128
 71
   467
 72
   449
 73
   450
  0
VERTEX
  5
621
330
28C
100
AcDbEntity
  8
0
 62
     9
100
AcDbFaceRecord
 10
0.0
 20
0.0
 30
0.0
 70
   128
 71
   467
 72
   450
 73
   466
  0
VERTEX
  5
622
330
28C
100
AcDbEntity
  8
0
 62
     9
100
AcDbFaceRecord
 10
0.0
 20
0.0
 30
0.0
 70
   128
 71
   466
 72
   450
 73
   451
  0
VERTEX
  5
623
330
28C
100
AcDbEntity
  8
0
 62
     9
100
AcDbFaceRecord
 10
0.0
 20
0.0
 30
0.0
 70
   128
 71
   466
 72
   451
 73
   452
  0
VERTEX
  5
624
330
28C
100
AcDbEntity
  8
0
 62
     9
100
AcDbFaceRecord
 10
0.0
 20
0.0
 30
0.0
 70
   128
 71
   466
 72
   452
 73
   465
  0
VERTEX
  5
625
330
28C
100
AcDbEntity
  8
0
 62
     9
100
AcDbFaceRecord
 10
0.0
 20
0.0
 30
0.0
 70
   128
 71
   465
 72
   452
 73
   453
  0
VERTEX
  5
626
330
28C
100
AcDbEntity
  8
0
 62
     9
100
AcDbFaceRecord
 10
0.0
 20
0.0
 30
0.0
 70
   128
 71
   465
 72
   453
 73
   464
  0
VERTEX
  5
627
330
28C
100
AcDbEntity
  8
0
 62
     9
100
AcDbFaceRecord
 10
0.0
 20
0.0
 30
0.0
 70
   128
 71
   464
 72
   453
 73
   454
  0
VERTEX
  5
628
330
28C
100
AcDbEntity
  8
0
 62
     9
100
AcDbFaceRecord
 10
0.0
 20
0.0
 30
0.0
 70
   128
 71
   464
 72
   454
 73
   463
  0
VERTEX
  5
629
330
28C
100
AcDbEntity
  8
0
 62
     9
100
AcDbFaceRecord
 10
0.0
 20
0.0
 30
0.0
 70
   128
 71
   463
 72
   454
 73
   462
  0
VERTEX
  5
62A
330
28C
100
AcDbEntity
  8
0
 62
     9
100
AcDbFaceRecord
 10
0.0
 20
0.0
 30
0.0
 70
   128
 71
   462
 72
   454
 73
   455
  0
VERTEX
  5
62B
330
28C
100
AcDbEntity
  8
0
 62
     9
100
AcDbFaceRecord
 10
0.0
 20
0.0
 30
0.0
 70
   128
 71
   462
 72
   455
 73
   461
  0
VERTEX
  5
62C
330
28C
100
AcDbEntity
  8
0
 62
     9
100
AcDbFaceRecord
 10
0.0
 20
0.0
 30
0.0
 70
   128
 71
   461
 72
   455
 73
   456
  0
VERTEX
  5
62D
330
28C
100
AcDbEntity
  8
0
 62
     9
100
AcDbFaceRecord
 10
0.0
 20
0.0
 30
0.0
 70
   128
 71
   461
 72
   456
 73
   460
  0
VERTEX
  5
62E
330
28C
100
AcDbEntity
  8
0
 62
     9
100
AcDbFaceRecord
 10
0.0
 20
0.0
 30
0.0
 70
   128
 71
   460
 72
   456
 73
   457
  0
VERTEX
  5
62F
330
28C
100
AcDbEntity
  8
0
 62
     9
100
AcDbFaceRecord
 10
0.0
 20
0.0
 30
0.0
 70
   128
 71
   460
 72
   457
 73
   459
  0
VERTEX
  5
630
330
28C
100
AcDbEntity
  8
0
 62
     9
100
AcDbFaceRecord
 10
0.0
 20
0.0
 30
0.0
 70
   128
 71
   459
 72
   457
 73
   458
  0
VERTEX
  5
631
330
28C
100
AcDbEntity
  8
0
 62
     9
100
AcDbFaceRecord
 10
0.0
 20
0.0
 30
0.0
 70
   128
 71
   447
 72
   470
 73
   471
  0
VERTEX
  5
632
330
28C
100
AcDbEntity
  8
0
 62
     9
100
AcDbFaceRecord
 10
0.0
 20
0.0
 30
0.0
 70
   128
 71
   447
 72
   471
 73
   472
  0
VERTEX
  5
633
330
28C
100
AcDbEntity
  8
0
 62
     9
100
AcDbFaceRecord
 10
0.0
 20
0.0
 30
0.0
 70
   128
 71
   473
 72
   474
 73
   495
  0
VERTEX
  5
634
330
28C
100
AcDbEntity
  8
0
 62
     9
100
AcDbFaceRecord
 10
0.0
 20
0.0
 30
0.0
 70
   128
 71
   495
 72
   474
 73
   494
  0
VERTEX
  5
635
330
28C
100
AcDbEntity
  8
0
 62
     9
100
AcDbFaceRecord
 10
0.0
 20
0.0
 30
0.0
 70
   128
 71
   494
 72
   474
 73
   475
  0
VERTEX
  5
636
330
28C
100
AcDbEntity
  8
0
 62
     9
100
AcDbFaceRecord
 10
0.0
 20
0.0
 30
0.0
 70
   128
 71
   494
 72
   475
 73
   493
  0
VERTEX
  5
637
330
28C
100
AcDbEntity
  8
0
 62
     9
100
AcDbFaceRecord
 10
0.0
 20
0.0
 30
0.0
 70
   128
 71
   493
 72
   475
 73
   476
  0
VERTEX
  5
638
330
28C
100
AcDbEntity
  8
0
 62
     9
100
AcDbFaceRecord
 10
0.0
 20
0.0
 30
0.0
 70
   128
 71
   493
 72
   476
 73
   477
  0
VERTEX
  5
639
330
28C
100
AcDbEntity
  8
0
 62
     9
100
AcDbFaceRecord
 10
0.0
 20
0.0
 30
0.0
 70
   128
 71
   493
 72
   477
 73
   492
  0
VERTEX
  5
63A
330
28C
100
AcDbEntity
  8
0
 62
     9
100
AcDbFaceRecord
 10
0.0
 20
0.0
 30
0.0
 70
   128
 71
   492
 72
   477
 73
   478
  0
VERTEX
  5
63B
330
28C
100
AcDbEntity
  8
0
 62
     9
100
AcDbFaceRecord
 10
0.0
 20
0.0
 30
0.0
 70
   128
 71
   492
 72
   478
 73
   491
  0
VERTEX
  5
63C
330
28C
100
AcDbEntity
  8
0
 62
     9
100
AcDbFaceRecord
 10
0.0
 20
0.0
 30
0.0
 70
   128
 71
   491
 72
   478
 73
   479
  0
VERTEX
  5
63D
330
28C
100
AcDbEntity
  8
0
 62
     9
100
AcDbFaceRecord
 10
0.0
 20
0.0
 30
0.0
 70
   128
 71
   491
 72
   479
 73
   490
  0
VERTEX
  5
63E
330
28C
100
AcDbEntity
  8
0
 62
     9
100
AcDbFaceRecord
 10
0.0
 20
0.0
 30
0.0
 70
   128
 71
   490
 72
   479
 73
   489
  0
VERTEX
  5
63F
330
28C
100
AcDbEntity
  8
0
 62
     9
100
AcDbFaceRecord
 10
0.0
 20
0.0
 30
0.0
 70
   128
 71
   489
 72
   479
 73
   480
  0
VERTEX
  5
640
330
28C
100
AcDbEntity
  8
0
 62
     9
100
AcDbFaceRecord
 10
0.0
 20
0.0
 30
0.0
 70
   128
 71
   489
 72
   480
 73
   488
  0
VERTEX
  5
641
330
28C
100
AcDbEntity
  8
0
 62
     9
100
AcDbFaceRecord
 10
0.0
 20
0.0
 30
0.0
 70
   128
 71
   488
 72
   480
 73
   481
  0
VERTEX
  5
642
330
28C
100
AcDbEntity
  8
0
 62
     9
100
AcDbFaceRecord
 10
0.0
 20
0.0
 30
0.0
 70
   128
 71
   488
 72
   481
 73
   487
  0
VERTEX
  5
643
330
28C
100
AcDbEntity
  8
0
 62
     9
100
AcDbFaceRecord
 10
0.0
 20
0.0
 30
0.0
 70
   128
 71
   487
 72
   481
 73
   482
  0
VERTEX
  5
644
330
28C
100
AcDbEntity
  8
0
 62
     9
100
AcDbFaceRecord
 10
0.0
 20
0.0
 30
0.0
 70
   128
 71
   487
 72
   482
 73
   486
  0
VERTEX
  5
645
330
28C
100
AcDbEntity
  8
0
 62
     9
100
AcDbFaceRecord
 10
0.0
 20
0.0
 30
0.0
 70
   128
 71
   486
 72
   482
 73
   483
  0
VERTEX
  5
646
330
28C
100
AcDbEntity
  8
0
 62
     9
100
AcDbFaceRecord
 10
0.0
 20
0.0
 30
0.0
 70
   128
 71
   486
 72
   483
 73
   485
  0
VERTEX
  5
647
330
28C
100
AcDbEntity
  8
0
 62
     9
100
AcDbFaceRecord
 10
0.0
 20
0.0
 30
0.0
 70
   128
 71
   485
 72
   483
 73
   484
  0
VERTEX
  5
648
330
28C
100
AcDbEntity
  8
0
 62
     9
100
AcDbFaceRecord
 10
0.0
 20
0.0
 30
0.0
 70
   128
 71
   473
 72
   495
 73
   496
  0
VERTEX
  5
649
330
28C
100
AcDbEntity
  8
0
 62
     9
100
AcDbFaceRecord
 10
0.0
 20
0.0
 30
0.0
 70
   128
 71
   473
 72
   496
 73
   497
  0
VERTEX
  5
64A
330
28C
100
AcDbEntity
  8
0
 62
     9
100
AcDbFaceRecord
 10
0.0
 20
0.0
 30
0.0
 70
   128
 71
   473
 72
   497
 73
   498
  0
SEQEND
  5
64B
330
28C
100
AcDbEntity
  8
0
 62
     9
  0
INSERT
  5
64D
330
288
100
AcDbEntity
  8
0
100
AcDbBlockReference
  2
*U6
 10
0.0
 20
0.0
 30
0.0
  0
ENDBLK
  5
28B
330
288
100
AcDbEntity
  8
0
100
AcDbBlockEnd
  0
BLOCK
  5
64E
330
64C
100
AcDbEntity
  8
0
100
AcDbBlockBegin
  2
*U6
 70
     1
 10
0.0
 20
0.0
 30
0.0
  3
*U6
  1

  0
INSERT
  5
650
330
64C
100
AcDbEntity
  8
0
100
AcDbBlockReference
  2
_STYLE_LIBRARY__DWFW3D_PUB
 10
0.0
 20
0.0
 30
0.0
  0
ARC
  5
651
330
64C
100
AcDbEntity
  8
0
 62
    18
100
AcDbCircle
 10
-0.0459919161060839
 20
-0.036458338220453
 30
0.0104166669771075
 40
0.0208333382204533
210
0.0
220
1.0
230
0.0
100
AcDbArc
 50
18.00001025958592
 51
89.99999003902133
  0
POLYLINE
  5
652
330
64C
100
AcDbEntity
  8
0
 62
    18
100
AcDb3dPolyline
 66
     1
 10
0.0
 20
0.0
 30
0.0
 70
     8
  0
VERTEX
  5
653
330
652
100
AcDbEntity
  8
0
 62
    18
100
AcDbVertex
100
AcDb3dPolylineVertex
 10
0.0261782351881266
 20
0.0104166669771075
 30
-0.0300204791128635
 70
    32
  0
VERTEX
  5
654
330
652
100
AcDbEntity
  8
0
 62
    18
100
AcDbVertex
100
AcDb3dPolylineVertex
 10
0.015625
 20
0.0104166669771075
 30
-0.0625
 70
    32
  0
SEQEND
  5
655
330
652
100
AcDbEntity
  8
0
 62
    18
  0
POLYLINE
  5
656
330
64C
100
AcDbEntity
  8
0
 62
    18
100
AcDb3dPolyline
 66
     1
 10
0.0
 20
0.0
 30
0.0
 70
     8
  0
VERTEX
  5
657
330
656
100
AcDbEntity
  8
0
 62
    18
100
AcDbVertex
100
AcDb3dPolylineVertex
 10
0.015625
 20
0.0104166669771075
 30
-0.0625
 70
    32
  0
VERTEX
  5
658
330
656
100
AcDbEntity
  8
0
 62
    18
100
AcDbVertex
100
AcDb3dPolylineVertex
 10
-0.015625
 20
0.0104166669771075
 30
-0.0625
 70
    32
  0
SEQEND
  5
659
330
656
100
AcDbEntity
  8
0
 62
    18
  0
POLYLINE
  5
65A
330
64C
100
AcDbEntity
  8
0
 62
    18
100
AcDb3dPolyline
 66
     1
 10
0.0
 20
0.0
 30
0.0
 70
     8
  0
VERTEX
  5
65B
330
65A
100
AcDbEntity
  8
0
 62
    18
100
AcDbVertex
100
AcDb3dPolylineVertex
 10
-0.015625
 20
0.0104166669771075
 30
-0.0625
 70
    32
  0
VERTEX
  5
65C
330
65A
100
AcDbEntity
  8
0
 62
    18
100
AcDbVertex
100
AcDb3dPolylineVertex
 10
-0.0261782351881266
 20
0.0104166669771075
 30
-0.0300204791128635
 70
    32
  0
SEQEND
  5
65D
330
65A
100
AcDbEntity
  8
0
 62
    18
  0
ARC
  5
65E
330
64C
100
AcDbEntity
  8
0
 62
    18
100
AcDbCircle
 10
0.0459919161060839
 20
-0.036458338220453
 30
0.0104166669771075
 40
0.0208333382204533
210
0.0
220
1.0
230
0.0
100
AcDbArc
 50
90.00000996097867
 51
161.9999897404141
  0
POLYLINE
  5
65F
330
64C
100
AcDbEntity
  8
0
 62
    18
100
AcDb3dPolyline
 66
     1
 10
0.0
 20
0.0
 30
0.0
 70
     8
  0
VERTEX
  5
660
330
65F
100
AcDbEntity
  8
0
 62
    18
100
AcDbVertex
100
AcDb3dPolylineVertex
 10
-0.045991912484169
 20
0.0104166669771075
 30
-0.015625
 70
    32
  0
VERTEX
  5
661
330
65F
100
AcDbEntity
  8
0
 62
    18
100
AcDbVertex
100
AcDb3dPolylineVertex
 10
-0.0833333358168602
 20
0.0104166669771075
 30
-0.015625
 70
    32
  0
SEQEND
  5
662
330
65F
100
AcDbEntity
  8
0
 62
    18
  0
POLYLINE
  5
663
330
64C
100
AcDbEntity
  8
0
 62
    18
100
AcDb3dPolyline
 66
     1
 10
0.0
 20
0.0
 30
0.0
 70
     8
  0
VERTEX
  5
664
330
663
100
AcDbEntity
  8
0
 62
    18
100
AcDbVertex
100
AcDb3dPolylineVertex
 10
-0.0833333358168602
 20
0.0104166669771075
 30
-0.015625
 70
    32
  0
VERTEX
  5
665
330
663
100
AcDbEntity
  8
0
 62
    18
100
AcDbVertex
100
AcDb3dPolylineVertex
 10
-0.0833333358168602
 20
0.0104166669771075
 30
0.015625
 70
    32
  0
SEQEND
  5
666
330
663
100
AcDbEntity
  8
0
 62
    18
  0
POLYLINE
  5
667
330
64C
100
AcDbEntity
  8
0
 62
    18
100
AcDb3dPolyline
 66
     1
 10
0.0
 20
0.0
 30
0.0
 70
     8
  0
VERTEX
  5
668
330
667
100
AcDbEntity
  8
0
 62
    18
100
AcDbVertex
100
AcDb3dPolylineVertex
 10
-0.0833333358168602
 20
0.0104166669771075
 30
0.015625
 70
    32
  0
VERTEX
  5
669
330
667
100
AcDbEntity
  8
0
 62
    18
100
AcDbVertex
100
AcDb3dPolylineVertex
 10
-0.045991912484169
 20
0.0104166669771075
 30
0.015625
 70
    32
  0
SEQEND
  5
66A
330
667
100
AcDbEntity
  8
0
 62
    18
  0
ARC
  5
66B
330
64C
100
AcDbEntity
  8
0
 62
    18
100
AcDbCircle
 10
0.0459919161060839
 20
0.036458338220453
 30
0.0104166669771075
 40
0.0208333382204533
210
0.0
220
1.0
230
0.0
100
AcDbArc
 50
198.0000102595859
 51
269.9999900390213
  0
POLYLINE
  5
66C
330
64C
100
AcDbEntity
  8
0
 62
    18
100
AcDb3dPolyline
 66
     1
 10
0.0
 20
0.0
 30
0.0
 70
     8
  0
VERTEX
  5
66D
330
66C
100
AcDbEntity
  8
0
 62
    18
100
AcDbVertex
100
AcDb3dPolylineVertex
 10
-0.0261782351881266
 20
0.0104166669771075
 30
0.0300204791128635
 70
    32
  0
VERTEX
  5
66E
330
66C
100
AcDbEntity
  8
0
 62
    18
100
AcDbVertex
100
AcDb3dPolylineVertex
 10
-0.015625
 20
0.0104166669771075
 30
0.0625
 70
    32
  0
SEQEND
  5
66F
330
66C
100
AcDbEntity
  8
0
 62
    18
  0
POLYLINE
  5
670
330
64C
100
AcDbEntity
  8
0
 62
    18
100
AcDb3dPolyline
 66
     1
 10
0.0
 20
0.0
 30
0.0
 70
     8
  0
VERTEX
  5
671
330
670
100
AcDbEntity
  8
0
 62
    18
100
AcDbVertex
100
AcDb3dPolylineVertex
 10
-0.015625
 20
0.0104166669771075
 30
0.0625
 70
    32
  0
VERTEX
  5
672
330
670
100
AcDbEntity
  8
0
 62
    18
100
AcDbVertex
100
AcDb3dPolylineVertex
 10
0.015625
 20
0.0104166669771075
 30
0.0625
 70
    32
  0
SEQEND
  5
673
330
670
100
AcDbEntity
  8
0
 62
    18
  0
POLYLINE
  5
674
330
64C
100
AcDbEntity
  8
0
 62
    18
100
AcDb3dPolyline
 66
     1
 10
0.0
 20
0.0
 30
0.0
 70
     8
  0
VERTEX
  5
675
330
674
100
AcDbEntity
  8
0
 62
    18
100
AcDbVertex
100
AcDb3dPolylineVertex
 10
0.015625
 20
0.0104166669771075
 30
0.0625
 70
    32
  0
VERTEX
  5
676
330
674
100
AcDbEntity
  8
0
 62
    18
100
AcDbVertex
100
AcDb3dPolylineVertex
 10
0.0261782351881266
 20
0.0104166669771075
 30
0.0300204791128635
 70
    32
  0
SEQEND
  5
677
330
674
100
AcDbEntity
  8
0
 62
    18
  0
ARC
  5
678
330
64C
100
AcDbEntity
  8
0
 62
    18
100
AcDbCircle
 10
-0.0459919161060839
 20
0.036458338220453
 30
0.0104166669771075
 40
0.0208333382204533
210
0.0
220
1.0
230
0.0
100
AcDbArc
 50
270.0000099609787
 51
341.9999897404141
  0
POLYLINE
  5
679
330
64C
100
AcDbEntity
  8
0
 62
    18
100
AcDb3dPolyline
 66
     1
 10
0.0
 20
0.0
 30
0.0
 70
     8
  0
VERTEX
  5
67A
330
679
100
AcDbEntity
  8
0
 62
    18
100
AcDbVertex
100
AcDb3dPolylineVertex
 10
0.045991912484169
 20
0.0104166669771075
 30
0.015625
 70
    32
  0
VERTEX
  5
67B
330
679
100
AcDbEntity
  8
0
 62
    18
100
AcDbVertex
100
AcDb3dPolylineVertex
 10
0.0833333358168602
 20
0.0104166669771075
 30
0.015625
 70
    32
  0
SEQEND
  5
67C
330
679
100
AcDbEntity
  8
0
 62
    18
  0
POLYLINE
  5
67D
330
64C
100
AcDbEntity
  8
0
 62
    18
100
AcDb3dPolyline
 66
     1
 10
0.0
 20
0.0
 30
0.0
 70
     8
  0
VERTEX
  5
67E
330
67D
100
AcDbEntity
  8
0
 62
    18
100
AcDbVertex
100
AcDb3dPolylineVertex
 10
0.0833333358168602
 20
0.0104166669771075
 30
0.015625
 70
    32
  0
VERTEX
  5
67F
330
67D
100
AcDbEntity
  8
0
 62
    18
100
AcDbVertex
100
AcDb3dPolylineVertex
 10
0.0833333358168602
 20
0.0104166669771075
 30
-0.015625
 70
    32
  0
SEQEND
  5
680
330
67D
100
AcDbEntity
  8
0
 62
    18
  0
POLYLINE
  5
681
330
64C
100
AcDbEntity
  8
0
 62
    18
100
AcDb3dPolyline
 66
     1
 10
0.0
 20
0.0
 30
0.0
 70
     8
  0
VERTEX
  5
682
330
681
100
AcDbEntity
  8
0
 62
    18
100
AcDbVertex
100
AcDb3dPolylineVertex
 10
0.0833333358168602
 20
0.0104166669771075
 30
-0.015625
 70
    32
  0
VERTEX
  5
683
330
681
100
AcDbEntity
  8
0
 62
    18
100
AcDbVertex
100
AcDb3dPolylineVertex
 10
0.045991912484169
 20
0.0104166669771075
 30
-0.015625
 70
    32
  0
SEQEND
  5
684
330
681
100
AcDbEntity
  8
0
 62
    18
  0
POLYLINE
  5
685
330
64C
100
AcDbEntity
  8
0
 62
    18
100
AcDb3dPolyline
 66
     1
 10
0.0
 20
0.0
 30
0.0
 70
     8
  0
VERTEX
  5
686
330
685
100
AcDbEntity
  8
0
 62
    18
100
AcDbVertex
100
AcDb3dPolylineVertex
 10
-0.0520833320915699
 20
0.0104166669771075
 30
0.0104166669771075
 70
    32
  0
VERTEX
  5
687
330
685
100
AcDbEntity
  8
0
 62
    18
100
AcDbVertex
100
AcDb3dPolylineVertex
 10
-0.0520833320915699
 20
0.0104166669771075
 30
-0.0104166669771075
 70
    32
  0
SEQEND
  5
688
330
685
100
AcDbEntity
  8
0
 62
    18
  0
POLYLINE
  5
689
330
64C
100
AcDbEntity
  8
0
 62
    18
100
AcDb3dPolyline
 66
     1
 10
0.0
 20
0.0
 30
0.0
 70
     8
  0
VERTEX
  5
68A
330
689
100
AcDbEntity
  8
0
 62
    18
100
AcDbVertex
100
AcDb3dPolylineVertex
 10
-0.0520833320915699
 20
0.0104166669771075
 30
-0.0104166669771075
 70
    32
  0
VERTEX
  5
68B
330
689
100
AcDbEntity
  8
0
 62
    18
100
AcDbVertex
100
AcDb3dPolylineVertex
 10
0.0520833320915699
 20
0.0104166669771075
 30
-0.0104166669771075
 70
    32
  0
SEQEND
  5
68C
330
689
100
AcDbEntity
  8
0
 62
    18
  0
POLYLINE
  5
68D
330
64C
100
AcDbEntity
  8
0
 62
    18
100
AcDb3dPolyline
 66
     1
 10
0.0
 20
0.0
 30
0.0
 70
     8
  0
VERTEX
  5
68E
330
68D
100
AcDbEntity
  8
0
 62
    18
100
AcDbVertex
100
AcDb3dPolylineVertex
 10
0.0520833320915699
 20
0.0104166669771075
 30
-0.0104166669771075
 70
    32
  0
VERTEX
  5
68F
330
68D
100
AcDbEntity
  8
0
 62
    18
100
AcDbVertex
100
AcDb3dPolylineVertex
 10
0.0520833320915699
 20
0.0104166669771075
 30
0.0104166669771075
 70
    32
  0
SEQEND
  5
690
330
68D
100
AcDbEntity
  8
0
 62
    18
  0
POLYLINE
  5
691
330
64C
100
AcDbEntity
  8
0
 62
    18
100
AcDb3dPolyline
 66
     1
 10
0.0
 20
0.0
 30
0.0
 70
     8
  0
VERTEX
  5
692
330
691
100
AcDbEntity
  8
0
 62
    18
100
AcDbVertex
100
AcDb3dPolylineVertex
 10
0.0520833320915699
 20
0.0104166669771075
 30
0.0104166669771075
 70
    32
  0
VERTEX
  5
693
330
691
100
AcDbEntity
  8
0
 62
    18
100
AcDbVertex
100
AcDb3dPolylineVertex
 10
-0.0520833320915699
 20
0.0104166669771075
 30
0.0104166669771075
 70
    32
  0
SEQEND
  5
694
330
691
100
AcDbEntity
  8
0
 62
    18
  0
POLYLINE
  5
695
330
64C
100
AcDbEntity
  8
0
 62
    18
100
AcDb3dPolyline
 66
     1
 10
0.0
 20
0.0
 30
0.0
 70
     8
  0
VERTEX
  5
696
330
695
100
AcDbEntity
  8
0
 62
    18
100
AcDbVertex
100
AcDb3dPolylineVertex
 10
0.045991912484169
 20
-0.0000000000000061
 30
-0.015625
 70
    32
  0
VERTEX
  5
697
330
695
100
AcDbEntity
  8
0
 62
    18
100
AcDbVertex
100
AcDb3dPolylineVertex
 10
0.0833333358168602
 20
-0.0000000000000061
 30
-0.015625
 70
    32
  0
SEQEND
  5
698
330
695
100
AcDbEntity
  8
0
 62
    18
  0
POLYLINE
  5
699
330
64C
100
AcDbEntity
  8
0
 62
    18
100
AcDb3dPolyline
 66
     1
 10
0.0
 20
0.0
 30
0.0
 70
     8
  0
VERTEX
  5
69A
330
699
100
AcDbEntity
  8
0
 62
    18
100
AcDbVertex
100
AcDb3dPolylineVertex
 10
0.0833333358168602
 20
-0.0000000000000061
 30
-0.015625
 70
    32
  0
VERTEX
  5
69B
330
699
100
AcDbEntity
  8
0
 62
    18
100
AcDbVertex
100
AcDb3dPolylineVertex
 10
0.0833333358168602
 20
-0.0000000000000061
 30
0.015625
 70
    32
  0
SEQEND
  5
69C
330
699
100
AcDbEntity
  8
0
 62
    18
  0
POLYLINE
  5
69D
330
64C
100
AcDbEntity
  8
0
 62
    18
100
AcDb3dPolyline
 66
     1
 10
0.0
 20
0.0
 30
0.0
 70
     8
  0
VERTEX
  5
69E
330
69D
100
AcDbEntity
  8
0
 62
    18
100
AcDbVertex
100
AcDb3dPolylineVertex
 10
0.0833333358168602
 20
-0.0000000000000061
 30
0.015625
 70
    32
  0
VERTEX
  5
69F
330
69D
100
AcDbEntity
  8
0
 62
    18
100
AcDbVertex
100
AcDb3dPolylineVertex
 10
0.045991912484169
 20
-0.0000000000000061
 30
0.015625
 70
    32
  0
SEQEND
  5
6A0
330
69D
100
AcDbEntity
  8
0
 62
    18
  0
ARC
  5
6A1
330
64C
100
AcDbEntity
  8
0
 62
    18
100
AcDbCircle
 10
0.0459919161060839
 20
0.036458338220453
 30
0.0000000000000061
 40
0.0208333382204533
210
0.0
220
-1.0
230
0.0
100
AcDbArc
 50
198.0000102595859
 51
269.9999900390213
  0
POLYLINE
  5
6A2
330
64C
100
AcDbEntity
  8
0
 62
    18
100
AcDb3dPolyline
 66
     1
 10
0.0
 20
0.0
 30
0.0
 70
     8
  0
VERTEX
  5
6A3
330
6A2
100
AcDbEntity
  8
0
 62
    18
100
AcDbVertex
100
AcDb3dPolylineVertex
 10
0.0261782351881266
 20
-0.0000000000000061
 30
0.0300204791128635
 70
    32
  0
VERTEX
  5
6A4
330
6A2
100
AcDbEntity
  8
0
 62
    18
100
AcDbVertex
100
AcDb3dPolylineVertex
 10
0.015625
 20
-0.0000000000000061
 30
0.0625
 70
    32
  0
SEQEND
  5
6A5
330
6A2
100
AcDbEntity
  8
0
 62
    18
  0
POLYLINE
  5
6A6
330
64C
100
AcDbEntity
  8
0
 62
    18
100
AcDb3dPolyline
 66
     1
 10
0.0
 20
0.0
 30
0.0
 70
     8
  0
VERTEX
  5
6A7
330
6A6
100
AcDbEntity
  8
0
 62
    18
100
AcDbVertex
100
AcDb3dPolylineVertex
 10
0.015625
 20
-0.0000000000000061
 30
0.0625
 70
    32
  0
VERTEX
  5
6A8
330
6A6
100
AcDbEntity
  8
0
 62
    18
100
AcDbVertex
100
AcDb3dPolylineVertex
 10
-0.015625
 20
-0.0000000000000061
 30
0.0625
 70
    32
  0
SEQEND
  5
6A9
330
6A6
100
AcDbEntity
  8
0
 62
    18
  0
POLYLINE
  5
6AA
330
64C
100
AcDbEntity
  8
0
 62
    18
100
AcDb3dPolyline
 66
     1
 10
0.0
 20
0.0
 30
0.0
 70
     8
  0
VERTEX
  5
6AB
330
6AA
100
AcDbEntity
  8
0
 62
    18
100
AcDbVertex
100
AcDb3dPolylineVertex
 10
-0.015625
 20
-0.0000000000000061
 30
0.0625
 70
    32
  0
VERTEX
  5
6AC
330
6AA
100
AcDbEntity
  8
0
 62
    18
100
AcDbVertex
100
AcDb3dPolylineVertex
 10
-0.0261782351881266
 20
-0.0000000000000061
 30
0.0300204791128635
 70
    32
  0
SEQEND
  5
6AD
330
6AA
100
AcDbEntity
  8
0
 62
    18
  0
ARC
  5
6AE
330
64C
100
AcDbEntity
  8
0
 62
    18
100
AcDbCircle
 10
-0.0459919161060839
 20
0.036458338220453
 30
0.0000000000000061
 40
0.0208333382204533
210
0.0
220
-1.0
230
0.0
100
AcDbArc
 50
270.0000099609787
 51
341.9999897404141
  0
POLYLINE
  5
6AF
330
64C
100
AcDbEntity
  8
0
 62
    18
100
AcDb3dPolyline
 66
     1
 10
0.0
 20
0.0
 30
0.0
 70
     8
  0
VERTEX
  5
6B0
330
6AF
100
AcDbEntity
  8
0
 62
    18
100
AcDbVertex
100
AcDb3dPolylineVertex
 10
-0.045991912484169
 20
-0.0000000000000061
 30
0.015625
 70
    32
  0
VERTEX
  5
6B1
330
6AF
100
AcDbEntity
  8
0
 62
    18
100
AcDbVertex
100
AcDb3dPolylineVertex
 10
-0.0833333358168602
 20
-0.0000000000000061
 30
0.015625
 70
    32
  0
SEQEND
  5
6B2
330
6AF
100
AcDbEntity
  8
0
 62
    18
  0
POLYLINE
  5
6B3
330
64C
100
AcDbEntity
  8
0
 62
    18
100
AcDb3dPolyline
 66
     1
 10
0.0
 20
0.0
 30
0.0
 70
     8
  0
VERTEX
  5
6B4
330
6B3
100
AcDbEntity
  8
0
 62
    18
100
AcDbVertex
100
AcDb3dPolylineVertex
 10
-0.0833333358168602
 20
-0.0000000000000061
 30
0.015625
 70
    32
  0
VERTEX
  5
6B5
330
6B3
100
AcDbEntity
  8
0
 62
    18
100
AcDbVertex
100
AcDb3dPolylineVertex
 10
-0.0833333358168602
 20
-0.0000000000000061
 30
-0.015625
 70
    32
  0
SEQEND
  5
6B6
330
6B3
100
AcDbEntity
  8
0
 62
    18
  0
POLYLINE
  5
6B7
330
64C
100
AcDbEntity
  8
0
 62
    18
100
AcDb3dPolyline
 66
     1
 10
0.0
 20
0.0
 30
0.0
 70
     8
  0
VERTEX
  5
6B8
330
6B7
100
AcDbEntity
  8
0
 62
    18
100
AcDbVertex
100
AcDb3dPolylineVertex
 10
-0.0833333358168602
 20
-0.0000000000000061
 30
-0.015625
 70
    32
  0
VERTEX
  5
6B9
330
6B7
100
AcDbEntity
  8
0
 62
    18
100
AcDbVertex
100
AcDb3dPolylineVertex
 10
-0.045991912484169
 20
-0.0000000000000061
 30
-0.015625
 70
    32
  0
SEQEND
  5
6BA
330
6B7
100
AcDbEntity
  8
0
 62
    18
  0
ARC
  5
6BB
330
64C
100
AcDbEntity
  8
0
 62
    18
100
AcDbCircle
 10
-0.0459919161060839
 20
-0.036458338220453
 30
0.0000000000000061
 40
0.0208333382204533
210
0.0
220
-1.0
230
0.0
100
AcDbArc
 50
18.00001025958592
 51
89.99999003902133
  0
POLYLINE
  5
6BC
330
64C
100
AcDbEntity
  8
0
 62
    18
100
AcDb3dPolyline
 66
     1
 10
0.0
 20
0.0
 30
0.0
 70
     8
  0
VERTEX
  5
6BD
330
6BC
100
AcDbEntity
  8
0
 62
    18
100
AcDbVertex
100
AcDb3dPolylineVertex
 10
-0.0261782351881266
 20
-0.0000000000000061
 30
-0.0300204791128635
 70
    32
  0
VERTEX
  5
6BE
330
6BC
100
AcDbEntity
  8
0
 62
    18
100
AcDbVertex
100
AcDb3dPolylineVertex
 10
-0.015625
 20
-0.0000000000000061
 30
-0.0625
 70
    32
  0
SEQEND
  5
6BF
330
6BC
100
AcDbEntity
  8
0
 62
    18
  0
POLYLINE
  5
6C0
330
64C
100
AcDbEntity
  8
0
 62
    18
100
AcDb3dPolyline
 66
     1
 10
0.0
 20
0.0
 30
0.0
 70
     8
  0
VERTEX
  5
6C1
330
6C0
100
AcDbEntity
  8
0
 62
    18
100
AcDbVertex
100
AcDb3dPolylineVertex
 10
-0.015625
 20
-0.0000000000000061
 30
-0.0625
 70
    32
  0
VERTEX
  5
6C2
330
6C0
100
AcDbEntity
  8
0
 62
    18
100
AcDbVertex
100
AcDb3dPolylineVertex
 10
0.015625
 20
-0.0000000000000061
 30
-0.0625
 70
    32
  0
SEQEND
  5
6C3
330
6C0
100
AcDbEntity
  8
0
 62
    18
  0
POLYLINE
  5
6C4
330
64C
100
AcDbEntity
  8
0
 62
    18
100
AcDb3dPolyline
 66
     1
 10
0.0
 20
0.0
 30
0.0
 70
     8
  0
VERTEX
  5
6C5
330
6C4
100
AcDbEntity
  8
0
 62
    18
100
AcDbVertex
100
AcDb3dPolylineVertex
 10
0.015625
 20
-0.0000000000000061
 30
-0.0625
 70
    32
  0
VERTEX
  5
6C6
330
6C4
100
AcDbEntity
  8
0
 62
    18
100
AcDbVertex
100
AcDb3dPolylineVertex
 10
0.0261782351881266
 20
-0.0000000000000061
 30
-0.0300204791128635
 70
    32
  0
SEQEND
  5
6C7
330
6C4
100
AcDbEntity
  8
0
 62
    18
  0
ARC
  5
6C8
330
64C
100
AcDbEntity
  8
0
 62
    18
100
AcDbCircle
 10
0.0459919161060839
 20
-0.036458338220453
 30
0.0000000000000061
 40
0.0208333382204533
210
0.0
220
-1.0
230
0.0
100
AcDbArc
 50
90.00000996097867
 51
161.9999897404141
  0
POLYLINE
  5
6C9
330
64C
100
AcDbEntity
  8
0
 62
    18
100
AcDb3dPolyline
 66
     1
 10
0.0
 20
0.0
 30
0.0
 70
     8
  0
VERTEX
  5
6CA
330
6C9
100
AcDbEntity
  8
0
 62
    18
100
AcDbVertex
100
AcDb3dPolylineVertex
 10
0.045991912484169
 20
0.0104166669771075
 30
-0.015625
 70
    32
  0
VERTEX
  5
6CB
330
6C9
100
AcDbEntity
  8
0
 62
    18
100
AcDbVertex
100
AcDb3dPolylineVertex
 10
0.045991912484169
 20
-0.0000000000000061
 30
-0.015625
 70
    32
  0
SEQEND
  5
6CC
330
6C9
100
AcDbEntity
  8
0
 62
    18
  0
POLYLINE
  5
6CD
330
64C
100
AcDbEntity
  8
0
 62
    18
100
AcDb3dPolyline
 66
     1
 10
0.0
 20
0.0
 30
0.0
 70
     8
  0
VERTEX
  5
6CE
330
6CD
100
AcDbEntity
  8
0
 62
    18
100
AcDbVertex
100
AcDb3dPolylineVertex
 10
0.0261782351881266
 20
-0.0000000000000061
 30
-0.0300204791128635
 70
    32
  0
VERTEX
  5
6CF
330
6CD
100
AcDbEntity
  8
0
 62
    18
100
AcDbVertex
100
AcDb3dPolylineVertex
 10
0.0261782351881266
 20
0.0104166669771075
 30
-0.0300204791128635
 70
    32
  0
SEQEND
  5
6D0
330
6CD
100
AcDbEntity
  8
0
 62
    18
  0
POLYLINE
  5
6D1
330
64C
100
AcDbEntity
  8
0
 62
    18
100
AcDb3dPolyline
 66
     1
 10
0.0
 20
0.0
 30
0.0
 70
     8
  0
VERTEX
  5
6D2
330
6D1
100
AcDbEntity
  8
0
 62
    18
100
AcDbVertex
100
AcDb3dPolylineVertex
 10
0.015625
 20
-0.0000000000000061
 30
-0.0625
 70
    32
  0
VERTEX
  5
6D3
330
6D1
100
AcDbEntity
  8
0
 62
    18
100
AcDbVertex
100
AcDb3dPolylineVertex
 10
0.015625
 20
0.0104166669771075
 30
-0.0625
 70
    32
  0
SEQEND
  5
6D4
330
6D1
100
AcDbEntity
  8
0
 62
    18
  0
POLYLINE
  5
6D5
330
64C
100
AcDbEntity
  8
0
 62
    18
100
AcDb3dPolyline
 66
     1
 10
0.0
 20
0.0
 30
0.0
 70
     8
  0
VERTEX
  5
6D6
330
6D5
100
AcDbEntity
  8
0
 62
    18
100
AcDbVertex
100
AcDb3dPolylineVertex
 10
-0.015625
 20
-0.0000000000000061
 30
-0.0625
 70
    32
  0
VERTEX
  5
6D7
330
6D5
100
AcDbEntity
  8
0
 62
    18
100
AcDbVertex
100
AcDb3dPolylineVertex
 10
-0.015625
 20
0.0104166669771075
 30
-0.0625
 70
    32
  0
SEQEND
  5
6D8
330
6D5
100
AcDbEntity
  8
0
 62
    18
  0
POLYLINE
  5
6D9
330
64C
100
AcDbEntity
  8
0
 62
    18
100
AcDb3dPolyline
 66
     1
 10
0.0
 20
0.0
 30
0.0
 70
     8
  0
VERTEX
  5
6DA
330
6D9
100
AcDbEntity
  8
0
 62
    18
100
AcDbVertex
100
AcDb3dPolylineVertex
 10
-0.0261782351881266
 20
-0.0000000000000061
 30
-0.0300204791128635
 70
    32
  0
VERTEX
  5
6DB
330
6D9
100
AcDbEntity
  8
0
 62
    18
100
AcDbVertex
100
AcDb3dPolylineVertex
 10
-0.0261782351881266
 20
0.0104166669771075
 30
-0.0300204791128635
 70
    32
  0
SEQEND
  5
6DC
330
6D9
100
AcDbEntity
  8
0
 62
    18
  0
POLYLINE
  5
6DD
330
64C
100
AcDbEntity
  8
0
 62
    18
100
AcDb3dPolyline
 66
     1
 10
0.0
 20
0.0
 30
0.0
 70
     8
  0
VERTEX
  5
6DE
330
6DD
100
AcDbEntity
  8
0
 62
    18
100
AcDbVertex
100
AcDb3dPolylineVertex
 10
-0.045991912484169
 20
-0.0000000000000061
 30
-0.015625
 70
    32
  0
VERTEX
  5
6DF
330
6DD
100
AcDbEntity
  8
0
 62
    18
100
AcDbVertex
100
AcDb3dPolylineVertex
 10
-0.045991912484169
 20
0.0104166669771075
 30
-0.015625
 70
    32
  0
SEQEND
  5
6E0
330
6DD
100
AcDbEntity
  8
0
 62
    18
  0
POLYLINE
  5
6E1
330
64C
100
AcDbEntity
  8
0
 62
    18
100
AcDb3dPolyline
 66
     1
 10
0.0
 20
0.0
 30
0.0
 70
     8
  0
VERTEX
  5
6E2
330
6E1
100
AcDbEntity
  8
0
 62
    18
100
AcDbVertex
100
AcDb3dPolylineVertex
 10
-0.0833333358168602
 20
-0.0000000000000061
 30
-0.015625
 70
    32
  0
VERTEX
  5
6E3
330
6E1
100
AcDbEntity
  8
0
 62
    18
100
AcDbVertex
100
AcDb3dPolylineVertex
 10
-0.0833333358168602
 20
0.0104166669771075
 30
-0.015625
 70
    32
  0
SEQEND
  5
6E4
330
6E1
100
AcDbEntity
  8
0
 62
    18
  0
POLYLINE
  5
6E5
330
64C
100
AcDbEntity
  8
0
 62
    18
100
AcDb3dPolyline
 66
     1
 10
0.0
 20
0.0
 30
0.0
 70
     8
  0
VERTEX
  5
6E6
330
6E5
100
AcDbEntity
  8
0
 62
    18
100
AcDbVertex
100
AcDb3dPolylineVertex
 10
-0.0833333358168602
 20
-0.0000000000000061
 30
0.015625
 70
    32
  0
VERTEX
  5
6E7
330
6E5
100
AcDbEntity
  8
0
 62
    18
100
AcDbVertex
100
AcDb3dPolylineVertex
 10
-0.0833333358168602
 20
0.0104166669771075
 30
0.015625
 70
    32
  0
SEQEND
  5
6E8
330
6E5
100
AcDbEntity
  8
0
 62
    18
  0
POLYLINE
  5
6E9
330
64C
100
AcDbEntity
  8
0
 62
    18
100
AcDb3dPolyline
 66
     1
 10
0.0
 20
0.0
 30
0.0
 70
     8
  0
VERTEX
  5
6EA
330
6E9
100
AcDbEntity
  8
0
 62
    18
100
AcDbVertex
100
AcDb3dPolylineVertex
 10
-0.045991912484169
 20
-0.0000000000000061
 30
0.015625
 70
    32
  0
VERTEX
  5
6EB
330
6E9
100
AcDbEntity
  8
0
 62
    18
100
AcDbVertex
100
AcDb3dPolylineVertex
 10
-0.045991912484169
 20
0.0104166669771075
 30
0.015625
 70
    32
  0
SEQEND
  5
6EC
330
6E9
100
AcDbEntity
  8
0
 62
    18
  0
POLYLINE
  5
6ED
330
64C
100
AcDbEntity
  8
0
 62
    18
100
AcDb3dPolyline
 66
     1
 10
0.0
 20
0.0
 30
0.0
 70
     8
  0
VERTEX
  5
6EE
330
6ED
100
AcDbEntity
  8
0
 62
    18
100
AcDbVertex
100
AcDb3dPolylineVertex
 10
-0.0261782351881266
 20
-0.0000000000000061
 30
0.0300204791128635
 70
    32
  0
VERTEX
  5
6EF
330
6ED
100
AcDbEntity
  8
0
 62
    18
100
AcDbVertex
100
AcDb3dPolylineVertex
 10
-0.0261782351881266
 20
0.0104166669771075
 30
0.0300204791128635
 70
    32
  0
SEQEND
  5
6F0
330
6ED
100
AcDbEntity
  8
0
 62
    18
  0
POLYLINE
  5
6F1
330
64C
100
AcDbEntity
  8
0
 62
    18
100
AcDb3dPolyline
 66
     1
 10
0.0
 20
0.0
 30
0.0
 70
     8
  0
VERTEX
  5
6F2
330
6F1
100
AcDbEntity
  8
0
 62
    18
100
AcDbVertex
100
AcDb3dPolylineVertex
 10
-0.015625
 20
-0.0000000000000061
 30
0.0625
 70
    32
  0
VERTEX
  5
6F3
330
6F1
100
AcDbEntity
  8
0
 62
    18
100
AcDbVertex
100
AcDb3dPolylineVertex
 10
-0.015625
 20
0.0104166669771075
 30
0.0625
 70
    32
  0
SEQEND
  5
6F4
330
6F1
100
AcDbEntity
  8
0
 62
    18
  0
POLYLINE
  5
6F5
330
64C
100
AcDbEntity
  8
0
 62
    18
100
AcDb3dPolyline
 66
     1
 10
0.0
 20
0.0
 30
0.0
 70
     8
  0
VERTEX
  5
6F6
330
6F5
100
AcDbEntity
  8
0
 62
    18
100
AcDbVertex
100
AcDb3dPolylineVertex
 10
0.015625
 20
-0.0000000000000061
 30
0.0625
 70
    32
  0
VERTEX
  5
6F7
330
6F5
100
AcDbEntity
  8
0
 62
    18
100
AcDbVertex
100
AcDb3dPolylineVertex
 10
0.015625
 20
0.0104166669771075
 30
0.0625
 70
    32
  0
SEQEND
  5
6F8
330
6F5
100
AcDbEntity
  8
0
 62
    18
  0
POLYLINE
  5
6F9
330
64C
100
AcDbEntity
  8
0
 62
    18
100
AcDb3dPolyline
 66
     1
 10
0.0
 20
0.0
 30
0.0
 70
     8
  0
VERTEX
  5
6FA
330
6F9
100
AcDbEntity
  8
0
 62
    18
100
AcDbVertex
100
AcDb3dPolylineVertex
 10
0.0261782351881266
 20
-0.0000000000000061
 30
0.0300204791128635
 70
    32
  0
VERTEX
  5
6FB
330
6F9
100
AcDbEntity
  8
0
 62
    18
100
AcDbVertex
100
AcDb3dPolylineVertex
 10
0.0261782351881266
 20
0.0104166669771075
 30
0.0300204791128635
 70
    32
  0
SEQEND
  5
6FC
330
6F9
100
AcDbEntity
  8
0
 62
    18
  0
POLYLINE
  5
6FD
330
64C
100
AcDbEntity
  8
0
 62
    18
100
AcDb3dPolyline
 66
     1
 10
0.0
 20
0.0
 30
0.0
 70
     8
  0
VERTEX
  5
6FE
330
6FD
100
AcDbEntity
  8
0
 62
    18
100
AcDbVertex
100
AcDb3dPolylineVertex
 10
0.045991912484169
 20
-0.0000000000000061
 30
0.015625
 70
    32
  0
VERTEX
  5
6FF
330
6FD
100
AcDbEntity
  8
0
 62
    18
100
AcDbVertex
100
AcDb3dPolylineVertex
 10
0.045991912484169
 20
0.0104166669771075
 30
0.015625
 70
    32
  0
SEQEND
  5
700
330
6FD
100
AcDbEntity
  8
0
 62
    18
  0
POLYLINE
  5
701
330
64C
100
AcDbEntity
  8
0
 62
    18
100
AcDb3dPolyline
 66
     1
 10
0.0
 20
0.0
 30
0.0
 70
     8
  0
VERTEX
  5
702
330
701
100
AcDbEntity
  8
0
 62
    18
100
AcDbVertex
100
AcDb3dPolylineVertex
 10
0.0833333358168602
 20
-0.0000000000000061
 30
0.015625
 70
    32
  0
VERTEX
  5
703
330
701
100
AcDbEntity
  8
0
 62
    18
100
AcDbVertex
100
AcDb3dPolylineVertex
 10
0.0833333358168602
 20
0.0104166669771075
 30
0.015625
 70
    32
  0
SEQEND
  5
704
330
701
100
AcDbEntity
  8
0
 62
    18
  0
POLYLINE
  5
705
330
64C
100
AcDbEntity
  8
0
 62
    18
100
AcDb3dPolyline
 66
     1
 10
0.0
 20
0.0
 30
0.0
 70
     8
  0
VERTEX
  5
706
330
705
100
AcDbEntity
  8
0
 62
    18
100
AcDbVertex
100
AcDb3dPolylineVertex
 10
0.0833333358168602
 20
-0.0000000000000061
 30
-0.015625
 70
    32
  0
VERTEX
  5
707
330
705
100
AcDbEntity
  8
0
 62
    18
100
AcDbVertex
100
AcDb3dPolylineVertex
 10
0.0833333358168602
 20
0.0104166669771075
 30
-0.015625
 70
    32
  0
SEQEND
  5
708
330
705
100
AcDbEntity
  8
0
 62
    18
  0
POLYLINE
  5
709
330
64C
100
AcDbEntity
  8
0
 62
    18
100
AcDb3dPolyline
 66
     1
 10
0.0
 20
0.0
 30
0.0
 70
     8
  0
VERTEX
  5
70A
330
709
100
AcDbEntity
  8
0
 62
    18
100
AcDbVertex
100
AcDb3dPolylineVertex
 10
-0.0520833320915699
 20
0.03125
 30
-0.0104166669771075
 70
    32
  0
VERTEX
  5
70B
330
709
100
AcDbEntity
  8
0
 62
    18
100
AcDbVertex
100
AcDb3dPolylineVertex
 10
-0.0520833320915699
 20
0.03125
 30
0.0104166669771075
 70
    32
  0
SEQEND
  5
70C
330
709
100
AcDbEntity
  8
0
 62
    18
  0
POLYLINE
  5
70D
330
64C
100
AcDbEntity
  8
0
 62
    18
100
AcDb3dPolyline
 66
     1
 10
0.0
 20
0.0
 30
0.0
 70
     8
  0
VERTEX
  5
70E
330
70D
100
AcDbEntity
  8
0
 62
    18
100
AcDbVertex
100
AcDb3dPolylineVertex
 10
-0.0520833320915699
 20
0.03125
 30
0.0104166669771075
 70
    32
  0
VERTEX
  5
70F
330
70D
100
AcDbEntity
  8
0
 62
    18
100
AcDbVertex
100
AcDb3dPolylineVertex
 10
0.0520833320915699
 20
0.03125
 30
0.0104166669771075
 70
    32
  0
SEQEND
  5
710
330
70D
100
AcDbEntity
  8
0
 62
    18
  0
POLYLINE
  5
711
330
64C
100
AcDbEntity
  8
0
 62
    18
100
AcDb3dPolyline
 66
     1
 10
0.0
 20
0.0
 30
0.0
 70
     8
  0
VERTEX
  5
712
330
711
100
AcDbEntity
  8
0
 62
    18
100
AcDbVertex
100
AcDb3dPolylineVertex
 10
0.0520833320915699
 20
0.03125
 30
0.0104166669771075
 70
    32
  0
VERTEX
  5
713
330
711
100
AcDbEntity
  8
0
 62
    18
100
AcDbVertex
100
AcDb3dPolylineVertex
 10
0.0520833320915699
 20
0.03125
 30
-0.0104166669771075
 70
    32
  0
SEQEND
  5
714
330
711
100
AcDbEntity
  8
0
 62
    18
  0
POLYLINE
  5
715
330
64C
100
AcDbEntity
  8
0
 62
    18
100
AcDb3dPolyline
 66
     1
 10
0.0
 20
0.0
 30
0.0
 70
     8
  0
VERTEX
  5
716
330
715
100
AcDbEntity
  8
0
 62
    18
100
AcDbVertex
100
AcDb3dPolylineVertex
 10
0.0520833320915699
 20
0.03125
 30
-0.0104166669771075
 70
    32
  0
VERTEX
  5
717
330
715
100
AcDbEntity
  8
0
 62
    18
100
AcDbVertex
100
AcDb3dPolylineVertex
 10
-0.0520833320915699
 20
0.03125
 30
-0.0104166669771075
 70
    32
  0
SEQEND
  5
718
330
715
100
AcDbEntity
  8
0
 62
    18
  0
POLYLINE
  5
719
330
64C
100
AcDbEntity
  8
0
 62
    18
100
AcDb3dPolyline
 66
     1
 10
0.0
 20
0.0
 30
0.0
 70
     8
  0
VERTEX
  5
71A
330
719
100
AcDbEntity
  8
0
 62
    18
100
AcDbVertex
100
AcDb3dPolylineVertex
 10
-0.0520833320915699
 20
0.03125
 30
-0.0104166669771075
 70
    32
  0
VERTEX
  5
71B
330
719
100
AcDbEntity
  8
0
 62
    18
100
AcDbVertex
100
AcDb3dPolylineVertex
 10
-0.0520833320915699
 20
0.0104166669771075
 30
-0.0104166669771075
 70
    32
  0
SEQEND
  5
71C
330
719
100
AcDbEntity
  8
0
 62
    18
  0
ENDBLK
  5
64F
330
64C
100
AcDbEntity
  8
0
100
AcDbBlockEnd
  0
BLOCK
  5
71F
330
71D
100
AcDbEntity
  8
0
100
AcDbBlockBegin
  2
*U7
 70
     1
 10
0.0
 20
0.0
 30
0.0
  3
*U7
  1

  0
INSERT
  5
722
330
71D
100
AcDbEntity
  8
0
100
AcDbBlockReference
  2
53
 10
0.0
 20
0.0
 30
0.0
  0
ENDBLK
  5
720
330
71D
100
AcDbEntity
  8
0
100
AcDbBlockEnd
  0
BLOCK
  5
723
330
721
100
AcDbEntity
  8
0
100
AcDbBlockBegin
  2
53
 70
     0
 10
0.0
 20
0.0
 30
0.0
  3
53
  1

  0
INSERT
  5
726
330
721
100
AcDbEntity
  8
0
100
AcDbBlockReference
  2
54
 10
0.0
 20
0.0
 30
0.0
  0
ENDBLK
  5
724
330
721
100
AcDbEntity
  8
0
100
AcDbBlockEnd
  0
BLOCK
  5
727
330
725
100
AcDbEntity
  8
0
100
AcDbBlockBegin
  2
54
 70
     0
 10
0.0
 20
0.0
 30
0.0
  3
54
  1

  0
INSERT
  5
72A
330
725
100
AcDbEntity
  8
0
100
AcDbBlockReference
  2
55
 10
0.0
 20
0.0
 30
0.0
  0
ENDBLK
  5
728
330
725
100
AcDbEntity
  8
0
100
AcDbBlockEnd
  0
BLOCK
  5
72B
330
729
100
AcDbEntity
  8
0
100
AcDbBlockBegin
  2
55
 70
     0
 10
0.0
 20
0.0
 30
0.0
  3
55
  1

  0
INSERT
  5
72E
330
729
100
AcDbEntity
  8
0
100
AcDbBlockReference
  2
56
 10
0.0
 20
0.0
 30
0.0
  0
INSERT
  5
733
330
729
100
AcDbEntity
  8
0
100
AcDbBlockReference
  2
57
 10
0.0
 20
0.0
 30
0.0
  0
INSERT
  5
738
330
729
100
AcDbEntity
  8
0
100
AcDbBlockReference
  2
58
 10
0.0
 20
0.0
 30
0.0
  0
INSERT
  5
73D
330
729
100
AcDbEntity
  8
0
100
AcDbBlockReference
  2
59
 10
0.0
 20
0.0
 30
0.0
  0
INSERT
  5
742
330
729
100
AcDbEntity
  8
0
100
AcDbBlockReference
  2
60
 10
0.0
 20
0.0
 30
0.0
  0
INSERT
  5
747
330
729
100
AcDbEntity
  8
0
100
AcDbBlockReference
  2
61
 10
0.0
 20
0.0
 30
0.0
  0
INSERT
  5
74C
330
729
100
AcDbEntity
  8
0
100
AcDbBlockReference
  2
62
 10
0.0
 20
0.0
 30
0.0
  0
INSERT
  5
751
330
729
100
AcDbEntity
  8
0
100
AcDbBlockReference
  2
63
 10
0.0
 20
0.0
 30
0.0
  0
INSERT
  5
756
330
729
100
AcDbEntity
  8
0
100
AcDbBlockReference
  2
64
 10
0.0
 20
0.0
 30
0.0
  0
INSERT
  5
75B
330
729
100
AcDbEntity
  8
0
100
AcDbBlockReference
  2
65
 10
0.0
 20
0.0
 30
0.0
  0
INSERT
  5
760
330
729
100
AcDbEntity
  8
0
100
AcDbBlockReference
  2
66
 10
0.0
 20
0.0
 30
0.0
  0
INSERT
  5
765
330
729
100
AcDbEntity
  8
0
100
AcDbBlockReference
  2
67
 10
0.0
 20
0.0
 30
0.0
  0
INSERT
  5
76A
330
729
100
AcDbEntity
  8
0
100
AcDbBlockReference
  2
68
 10
0.0
 20
0.0
 30
0.0
  0
INSERT
  5
76F
330
729
100
AcDbEntity
  8
0
100
AcDbBlockReference
  2
69
 10
0.0
 20
0.0
 30
0.0
  0
INSERT
  5
774
330
729
100
AcDbEntity
  8
0
100
AcDbBlockReference
  2
70
 10
0.0
 20
0.0
 30
0.0
  0
INSERT
  5
779
330
729
100
AcDbEntity
  8
0
100
AcDbBlockReference
  2
71
 10
0.0
 20
0.0
 30
0.0
  0
INSERT
  5
77E
330
729
100
AcDbEntity
  8
0
100
AcDbBlockReference
  2
72
 10
0.0
 20
0.0
 30
0.0
  0
INSERT
  5
783
330
729
100
AcDbEntity
  8
0
100
AcDbBlockReference
  2
73
 10
0.0
 20
0.0
 30
0.0
  0
INSERT
  5
788
330
729
100
AcDbEntity
  8
0
100
AcDbBlockReference
  2
74
 10
0.0
 20
0.0
 30
0.0
  0
INSERT
  5
78D
330
729
100
AcDbEntity
  8
0
100
AcDbBlockReference
  2
75
 10
0.0
 20
0.0
 30
0.0
  0
INSERT
  5
792
330
729
100
AcDbEntity
  8
0
100
AcDbBlockReference
  2
76
 10
0.0
 20
0.0
 30
0.0
  0
INSERT
  5
797
330
729
100
AcDbEntity
  8
0
100
AcDbBlockReference
  2
77
 10
0.0
 20
0.0
 30
0.0
  0
INSERT
  5
79C
330
729
100
AcDbEntity
  8
0
100
AcDbBlockReference
  2
78
 10
0.0
 20
0.0
 30
0.0
  0
INSERT
  5
7A1
330
729
100
AcDbEntity
  8
0
100
AcDbBlockReference
  2
79
 10
0.0
 20
0.0
 30
0.0
  0
INSERT
  5
7A6
330
729
100
AcDbEntity
  8
0
100
AcDbBlockReference
  2
80
 10
0.0
 20
0.0
 30
0.0
  0
INSERT
  5
7AB
330
729
100
AcDbEntity
  8
0
100
AcDbBlockReference
  2
81
 10
0.0
 20
0.0
 30
0.0
  0
INSERT
  5
7B0
330
729
100
AcDbEntity
  8
0
100
AcDbBlockReference
  2
82
 10
0.0
 20
0.0
 30
0.0
  0
INSERT
  5
7B5
330
729
100
AcDbEntity
  8
0
100
AcDbBlockReference
  2
83
 10
0.0
 20
0.0
 30
0.0
  0
INSERT
  5
7BA
330
729
100
AcDbEntity
  8
0
100
AcDbBlockReference
  2
84
 10
0.0
 20
0.0
 30
0.0
  0
INSERT
  5
7BF
330
729
100
AcDbEntity
  8
0
100
AcDbBlockReference
  2
85
 10
0.0
 20
0.0
 30
0.0
  0
INSERT
  5
7C4
330
729
100
AcDbEntity
  8
0
100
AcDbBlockReference
  2
86
 10
0.0
 20
0.0
 30
0.0
  0
INSERT
  5
7C9
330
729
100
AcDbEntity
  8
0
100
AcDbBlockReference
  2
87
 10
0.0
 20
0.0
 30
0.0
  0
ENDBLK
  5
72C
330
729
100
AcDbEntity
  8
0
100
AcDbBlockEnd
  0
BLOCK
  5
72F
330
72D
100
AcDbEntity
  8
0
100
AcDbBlockBegin
  2
56
 70
     0
 10
0.0
 20
0.0
 30
0.0
  3
56
  1

  0
INSERT
  5
731
330
72D
100
AcDbEntity
  8
0
100
AcDbBlockReference
  2
_INCLUDE_LIBRARY_47
 10
-0.0000000000000061
 20
0.0000000000001029
 30
0.0625
 50
-90.0
210
1.0
220
0.0
230
1.776356839400250E-15
  0
ENDBLK
  5
730
330
72D
100
AcDbEntity
  8
0
100
AcDbBlockEnd
  0
BLOCK
  5
734
330
732
100
AcDbEntity
  8
0
100
AcDbBlockBegin
  2
57
 70
     0
 10
0.0
 20
0.0
 30
0.0
  3
57
  1

  0
INSERT
  5
736
330
732
100
AcDbEntity
  8
0
100
AcDbBlockReference
  2
_INCLUDE_LIBRARY_47
 10
-0.0000000000000061
 20
0.0000000000001026
 30
0.1875
 50
-90.0
210
1.0
220
0.0
230
1.776356839400250E-15
  0
ENDBLK
  5
735
330
732
100
AcDbEntity
  8
0
100
AcDbBlockEnd
  0
BLOCK
  5
739
330
737
100
AcDbEntity
  8
0
100
AcDbBlockBegin
  2
58
 70
     0
 10
0.0
 20
0.0
 30
0.0
  3
58
  1

  0
INSERT
  5
73B
330
737
100
AcDbEntity
  8
0
100
AcDbBlockReference
  2
_INCLUDE_LIBRARY_47
 10
-0.0000000000000061
 20
0.0000000000001024
 30
0.3125
 50
-90.0
210
1.0
220
0.0
230
1.776356839400250E-15
  0
ENDBLK
  5
73A
330
737
100
AcDbEntity
  8
0
100
AcDbBlockEnd
  0
BLOCK
  5
73E
330
73C
100
AcDbEntity
  8
0
100
AcDbBlockBegin
  2
59
 70
     0
 10
0.0
 20
0.0
 30
0.0
  3
59
  1

  0
INSERT
  5
740
330
73C
100
AcDbEntity
  8
0
100
AcDbBlockReference
  2
_INCLUDE_LIBRARY_47
 10
-0.0000000000000061
 20
0.0000000000001022
 30
0.4375
 50
-90.0
210
1.0
220
0.0
230
1.776356839400250E-15
  0
ENDBLK
  5
73F
330
73C
100
AcDbEntity
  8
0
100
AcDbBlockEnd
  0
BLOCK
  5
743
330
741
100
AcDbEntity
  8
0
100
AcDbBlockBegin
  2
60
 70
     0
 10
0.0
 20
0.0
 30
0.0
  3
60
  1

  0
INSERT
  5
745
330
741
100
AcDbEntity
  8
0
100
AcDbBlockReference
  2
_INCLUDE_LIBRARY_47
 10
-0.0000000000000061
 20
0.000000000000102
 30
0.5625
 50
-90.0
210
1.0
220
0.0
230
1.776356839400250E-15
  0
ENDBLK
  5
744
330
741
100
AcDbEntity
  8
0
100
AcDbBlockEnd
  0
BLOCK
  5
748
330
746
100
AcDbEntity
  8
0
100
AcDbBlockBegin
  2
61
 70
     0
 10
0.0
 20
0.0
 30
0.0
  3
61
  1

  0
INSERT
  5
74A
330
746
100
AcDbEntity
  8
0
100
AcDbBlockReference
  2
_INCLUDE_LIBRARY_47
 10
-0.0000000000000061
 20
0.0000000000001017
 30
0.6875
 50
-90.0
210
1.0
220
0.0
230
1.776356839400250E-15
  0
ENDBLK
  5
749
330
746
100
AcDbEntity
  8
0
100
AcDbBlockEnd
  0
BLOCK
  5
74D
330
74B
100
AcDbEntity
  8
0
100
AcDbBlockBegin
  2
62
 70
     0
 10
0.0
 20
0.0
 30
0.0
  3
62
  1

  0
INSERT
  5
74F
330
74B
100
AcDbEntity
  8
0
100
AcDbBlockReference
  2
_INCLUDE_LIBRARY_47
 10
-0.0000000000000061
 20
0.0000000000001015
 30
0.8125
 50
-90.0
210
1.0
220
0.0
230
1.776356839400250E-15
  0
ENDBLK
  5
74E
330
74B
100
AcDbEntity
  8
0
100
AcDbBlockEnd
  0
BLOCK
  5
752
330
750
100
AcDbEntity
  8
0
100
AcDbBlockBegin
  2
63
 70
     0
 10
0.0
 20
0.0
 30
0.0
  3
63
  1

  0
INSERT
  5
754
330
750
100
AcDbEntity
  8
0
100
AcDbBlockReference
  2
_INCLUDE_LIBRARY_47
 10
-0.0000000000000061
 20
0.0000000000001013
 30
0.9375
 50
-90.0
210
1.0
220
0.0
230
1.776356839400250E-15
  0
ENDBLK
  5
753
330
750
100
AcDbEntity
  8
0
100
AcDbBlockEnd
  0
BLOCK
  5
757
330
755
100
AcDbEntity
  8
0
100
AcDbBlockBegin
  2
64
 70
     0
 10
0.0
 20
0.0
 30
0.0
  3
64
  1

  0
INSERT
  5
759
330
755
100
AcDbEntity
  8
0
100
AcDbBlockReference
  2
_INCLUDE_LIBRARY_47
 10
-0.0000000000000061
 20
0.0000000000001011
 30
1.0625
 50
-90.0
210
1.0
220
0.0
230
1.776356839400250E-15
  0
ENDBLK
  5
758
330
755
100
AcDbEntity
  8
0
100
AcDbBlockEnd
  0
BLOCK
  5
75C
330
75A
100
AcDbEntity
  8
0
100
AcDbBlockBegin
  2
65
 70
     0
 10
0.0
 20
0.0
 30
0.0
  3
65
  1

  0
INSERT
  5
75E
330
75A
100
AcDbEntity
  8
0
100
AcDbBlockReference
  2
_INCLUDE_LIBRARY_47
 10
-0.0000000000000061
 20
0.0000000000001009
 30
1.1875
 50
-90.0
210
1.0
220
0.0
230
1.776356839400250E-15
  0
ENDBLK
  5
75D
330
75A
100
AcDbEntity
  8
0
100
AcDbBlockEnd
  0
BLOCK
  5
761
330
75F
100
AcDbEntity
  8
0
100
AcDbBlockBegin
  2
66
 70
     0
 10
0.0
 20
0.0
 30
0.0
  3
66
  1

  0
INSERT
  5
763
330
75F
100
AcDbEntity
  8
0
100
AcDbBlockReference
  2
_INCLUDE_LIBRARY_47
 10
-0.0000000000000061
 20
0.0000000000001006
 30
1.3125
 50
-90.0
210
1.0
220
0.0
230
1.776356839400250E-15
  0
ENDBLK
  5
762
330
75F
100
AcDbEntity
  8
0
100
AcDbBlockEnd
  0
BLOCK
  5
766
330
764
100
AcDbEntity
  8
0
100
AcDbBlockBegin
  2
67
 70
     0
 10
0.0
 20
0.0
 30
0.0
  3
67
  1

  0
INSERT
  5
768
330
764
100
AcDbEntity
  8
0
100
AcDbBlockReference
  2
_INCLUDE_LIBRARY_47
 10
-0.0000000000000061
 20
0.0000000000001004
 30
1.4375
 50
-90.0
210
1.0
220
0.0
230
1.776356839400250E-15
  0
ENDBLK
  5
767
330
764
100
AcDbEntity
  8
0
100
AcDbBlockEnd
  0
BLOCK
  5
76B
330
769
100
AcDbEntity
  8
0
100
AcDbBlockBegin
  2
68
 70
     0
 10
0.0
 20
0.0
 30
0.0
  3
68
  1

  0
INSERT
  5
76D
330
769
100
AcDbEntity
  8
0
100
AcDbBlockReference
  2
_INCLUDE_LIBRARY_47
 10
-0.0000000000000061
 20
0.0000000000001002
 30
1.5625
 50
-90.0
210
1.0
220
0.0
230
1.776356839400250E-15
  0
ENDBLK
  5
76C
330
769
100
AcDbEntity
  8
0
100
AcDbBlockEnd
  0
BLOCK
  5
770
330
76E
100
AcDbEntity
  8
0
100
AcDbBlockBegin
  2
69
 70
     0
 10
0.0
 20
0.0
 30
0.0
  3
69
  1

  0
INSERT
  5
772
330
76E
100
AcDbEntity
  8
0
100
AcDbBlockReference
  2
_INCLUDE_LIBRARY_47
 10
-0.0000000000000061
 20
0.0000000000001
 30
1.6875
 50
-90.0
210
1.0
220
0.0
230
1.776356839400250E-15
  0
ENDBLK
  5
771
330
76E
100
AcDbEntity
  8
0
100
AcDbBlockEnd
  0
BLOCK
  5
775
330
773
100
AcDbEntity
  8
0
100
AcDbBlockBegin
  2
70
 70
     0
 10
0.0
 20
0.0
 30
0.0
  3
70
  1

  0
INSERT
  5
777
330
773
100
AcDbEntity
  8
0
100
AcDbBlockReference
  2
_INCLUDE_LIBRARY_47
 10
-0.0000000000000061
 20
0.0000000000000998
 30
1.8125
 50
-90.0
210
1.0
220
0.0
230
1.776356839400250E-15
  0
ENDBLK
  5
776
330
773
100
AcDbEntity
  8
0
100
AcDbBlockEnd
  0
BLOCK
  5
77A
330
778
100
AcDbEntity
  8
0
100
AcDbBlockBegin
  2
71
 70
     0
 10
0.0
 20
0.0
 30
0.0
  3
71
  1

  0
INSERT
  5
77C
330
778
100
AcDbEntity
  8
0
100
AcDbBlockReference
  2
_INCLUDE_LIBRARY_47
 10
-0.0000000000000061
 20
0.0000000000000995
 30
1.9375
 50
-90.0
210
1.0
220
0.0
230
1.776356839400250E-15
  0
ENDBLK
  5
77B
330
778
100
AcDbEntity
  8
0
100
AcDbBlockEnd
  0
BLOCK
  5
77F
330
77D
100
AcDbEntity
  8
0
100
AcDbBlockBegin
  2
72
 70
     0
 10
0.0
 20
0.0
 30
0.0
  3
72
  1

  0
INSERT
  5
781
330
77D
100
AcDbEntity
  8
0
100
AcDbBlockReference
  2
_INCLUDE_LIBRARY_47
 10
-0.0000000000000061
 20
0.0000000000000993
 30
2.0625
 50
-90.0
210
1.0
220
0.0
230
1.776356839400250E-15
  0
ENDBLK
  5
780
330
77D
100
AcDbEntity
  8
0
100
AcDbBlockEnd
  0
BLOCK
  5
784
330
782
100
AcDbEntity
  8
0
100
AcDbBlockBegin
  2
73
 70
     0
 10
0.0
 20
0.0
 30
0.0
  3
73
  1

  0
INSERT
  5
786
330
782
100
AcDbEntity
  8
0
100
AcDbBlockReference
  2
_INCLUDE_LIBRARY_47
 10
-0.0000000000000061
 20
0.0000000000000991
 30
2.1875
 50
-90.0
210
1.0
220
0.0
230
1.776356839400250E-15
  0
ENDBLK
  5
785
330
782
100
AcDbEntity
  8
0
100
AcDbBlockEnd
  0
BLOCK
  5
789
330
787
100
AcDbEntity
  8
0
100
AcDbBlockBegin
  2
74
 70
     0
 10
0.0
 20
0.0
 30
0.0
  3
74
  1

  0
INSERT
  5
78B
330
787
100
AcDbEntity
  8
0
100
AcDbBlockReference
  2
_INCLUDE_LIBRARY_47
 10
-0.0000000000000061
 20
0.0000000000000989
 30
2.3125
 50
-90.0
210
1.0
220
0.0
230
1.776356839400250E-15
  0
ENDBLK
  5
78A
330
787
100
AcDbEntity
  8
0
100
AcDbBlockEnd
  0
BLOCK
  5
78E
330
78C
100
AcDbEntity
  8
0
100
AcDbBlockBegin
  2
75
 70
     0
 10
0.0
 20
0.0
 30
0.0
  3
75
  1

  0
INSERT
  5
790
330
78C
100
AcDbEntity
  8
0
100
AcDbBlockReference
  2
_INCLUDE_LIBRARY_47
 10
-0.0000000000000061
 20
0.0000000000000986
 30
2.4375
 50
-90.0
210
1.0
220
0.0
230
1.776356839400250E-15
  0
ENDBLK
  5
78F
330
78C
100
AcDbEntity
  8
0
100
AcDbBlockEnd
  0
BLOCK
  5
793
330
791
100
AcDbEntity
  8
0
100
AcDbBlockBegin
  2
76
 70
     0
 10
0.0
 20
0.0
 30
0.0
  3
76
  1

  0
INSERT
  5
795
330
791
100
AcDbEntity
  8
0
100
AcDbBlockReference
  2
_INCLUDE_LIBRARY_47
 10
-0.0000000000000061
 20
0.0000000000000984
 30
2.5625
 50
-90.0
210
1.0
220
0.0
230
1.776356839400250E-15
  0
ENDBLK
  5
794
330
791
100
AcDbEntity
  8
0
100
AcDbBlockEnd
  0
BLOCK
  5
798
330
796
100
AcDbEntity
  8
0
100
AcDbBlockBegin
  2
77
 70
     0
 10
0.0
 20
0.0
 30
0.0
  3
77
  1

  0
INSERT
  5
79A
330
796
100
AcDbEntity
  8
0
100
AcDbBlockReference
  2
_INCLUDE_LIBRARY_47
 10
-0.0000000000000061
 20
0.0000000000000982
 30
2.6875
 50
-90.0
210
1.0
220
0.0
230
1.776356839400250E-15
  0
ENDBLK
  5
799
330
796
100
AcDbEntity
  8
0
100
AcDbBlockEnd
  0
BLOCK
  5
79D
330
79B
100
AcDbEntity
  8
0
100
AcDbBlockBegin
  2
78
 70
     0
 10
0.0
 20
0.0
 30
0.0
  3
78
  1

  0
INSERT
  5
79F
330
79B
100
AcDbEntity
  8
0
100
AcDbBlockReference
  2
_INCLUDE_LIBRARY_47
 10
-0.0000000000000061
 20
0.000000000000098
 30
2.8125
 50
-90.0
210
1.0
220
0.0
230
1.776356839400250E-15
  0
ENDBLK
  5
79E
330
79B
100
AcDbEntity
  8
0
100
AcDbBlockEnd
  0
BLOCK
  5
7A2
330
7A0
100
AcDbEntity
  8
0
100
AcDbBlockBegin
  2
79
 70
     0
 10
0.0
 20
0.0
 30
0.0
  3
79
  1

  0
INSERT
  5
7A4
330
7A0
100
AcDbEntity
  8
0
100
AcDbBlockReference
  2
_INCLUDE_LIBRARY_47
 10
-0.0000000000000061
 20
0.0000000000000978
 30
2.9375
 50
-90.0
210
1.0
220
0.0
230
1.776356839400250E-15
  0
ENDBLK
  5
7A3
330
7A0
100
AcDbEntity
  8
0
100
AcDbBlockEnd
  0
BLOCK
  5
7A7
330
7A5
100
AcDbEntity
  8
0
100
AcDbBlockBegin
  2
80
 70
     0
 10
0.0
 20
0.0
 30
0.0
  3
80
  1

  0
INSERT
  5
7A9
330
7A5
100
AcDbEntity
  8
0
100
AcDbBlockReference
  2
_INCLUDE_LIBRARY_47
 10
-0.0000000000000061
 20
0.0000000000000975
 30
3.0625
 50
-90.0
210
1.0
220
0.0
230
1.776356839400250E-15
  0
ENDBLK
  5
7A8
330
7A5
100
AcDbEntity
  8
0
100
AcDbBlockEnd
  0
BLOCK
  5
7AC
330
7AA
100
AcDbEntity
  8
0
100
AcDbBlockBegin
  2
81
 70
     0
 10
0.0
 20
0.0
 30
0.0
  3
81
  1

  0
INSERT
  5
7AE
330
7AA
100
AcDbEntity
  8
0
100
AcDbBlockReference
  2
_INCLUDE_LIBRARY_47
 10
-0.0000000000000061
 20
0.0000000000000973
 30
3.1875
 50
-90.0
210
1.0
220
0.0
230
1.776356839400250E-15
  0
ENDBLK
  5
7AD
330
7AA
100
AcDbEntity
  8
0
100
AcDbBlockEnd
  0
BLOCK
  5
7B1
330
7AF
100
AcDbEntity
  8
0
100
AcDbBlockBegin
  2
82
 70
     0
 10
0.0
 20
0.0
 30
0.0
  3
82
  1

  0
INSERT
  5
7B3
330
7AF
100
AcDbEntity
  8
0
100
AcDbBlockReference
  2
_INCLUDE_LIBRARY_47
 10
-0.0000000000000061
 20
0.0000000000000971
 30
3.3125
 50
-90.0
210
1.0
220
0.0
230
1.776356839400250E-15
  0
ENDBLK
  5
7B2
330
7AF
100
AcDbEntity
  8
0
100
AcDbBlockEnd
  0
BLOCK
  5
7B6
330
7B4
100
AcDbEntity
  8
0
100
AcDbBlockBegin
  2
83
 70
     0
 10
0.0
 20
0.0
 30
0.0
  3
83
  1

  0
INSERT
  5
7B8
330
7B4
100
AcDbEntity
  8
0
100
AcDbBlockReference
  2
_INCLUDE_LIBRARY_47
 10
-0.0000000000000061
 20
0.0000000000000969
 30
3.4375
 50
-90.0
210
1.0
220
0.0
230
1.776356839400250E-15
  0
ENDBLK
  5
7B7
330
7B4
100
AcDbEntity
  8
0
100
AcDbBlockEnd
  0
BLOCK
  5
7BB
330
7B9
100
AcDbEntity
  8
0
100
AcDbBlockBegin
  2
84
 70
     0
 10
0.0
 20
0.0
 30
0.0
  3
84
  1

  0
INSERT
  5
7BD
330
7B9
100
AcDbEntity
  8
0
100
AcDbBlockReference
  2
_INCLUDE_LIBRARY_47
 10
-0.0000000000000061
 20
0.0000000000000966
 30
3.5625
 50
-90.0
210
1.0
220
0.0
230
1.776356839400250E-15
  0
ENDBLK
  5
7BC
330
7B9
100
AcDbEntity
  8
0
100
AcDbBlockEnd
  0
BLOCK
  5
7C0
330
7BE
100
AcDbEntity
  8
0
100
AcDbBlockBegin
  2
85
 70
     0
 10
0.0
 20
0.0
 30
0.0
  3
85
  1

  0
INSERT
  5
7C2
330
7BE
100
AcDbEntity
  8
0
100
AcDbBlockReference
  2
_INCLUDE_LIBRARY_47
 10
-0.0000000000000061
 20
0.0000000000000964
 30
3.6875
 50
-90.0
210
1.0
220
0.0
230
1.776356839400250E-15
  0
ENDBLK
  5
7C1
330
7BE
100
AcDbEntity
  8
0
100
AcDbBlockEnd
  0
BLOCK
  5
7C5
330
7C3
100
AcDbEntity
  8
0
100
AcDbBlockBegin
  2
86
 70
     0
 10
0.0
 20
0.0
 30
0.0
  3
86
  1

  0
INSERT
  5
7C7
330
7C3
100
AcDbEntity
  8
0
100
AcDbBlockReference
  2
_INCLUDE_LIBRARY_47
 10
-0.0000000000000061
 20
0.0000000000000962
 30
3.8125
 50
-90.0
210
1.0
220
0.0
230
1.776356839400250E-15
  0
ENDBLK
  5
7C6
330
7C3
100
AcDbEntity
  8
0
100
AcDbBlockEnd
  0
BLOCK
  5
7CA
330
7C8
100
AcDbEntity
  8
0
100
AcDbBlockBegin
  2
87
 70
     0
 10
0.0
 20
0.0
 30
0.0
  3
87
  1

  0
INSERT
  5
7CC
330
7C8
100
AcDbEntity
  8
0
100
AcDbBlockReference
  2
_INCLUDE_LIBRARY_47
 10
-0.0000000000000061
 20
0.000000000000096
 30
3.9375
 50
-90.0
210
1.0
220
0.0
230
1.776356839400250E-15
  0
ENDBLK
  5
7CB
330
7C8
100
AcDbEntity
  8
0
100
AcDbBlockEnd
  0
ENDSEC
  0
SECTION
  2
ENTITIES
  0
INSERT
  5
71E
330
1F
100
AcDbEntity
  8
0
100
AcDbBlockReference
  2
*U7
 10
0.0
 20
0.0
 30
0.0
  0
ENDSEC
  0
SECTION
  2
OBJECTS
  0
DICTIONARY
  5
C
330
0
100
AcDbDictionary
  3
ACAD_GROUP
350
D
  3
ACAD_LAYOUT
350
1A
  3
ACAD_MATERIAL
350
3B
  3
ACAD_MLEADERSTYLE
350
7EF
  3
ACAD_MLINESTYLE
350
17
  3
ACAD_PLOTSETTINGS
350
19
  3
ACAD_SCALELIST
350
18E
  3
ACAD_VISUALSTYLE
350
2A
  3
ACDBHEADERROUNDTRIPXREC
350
7CD
  3
ACDBVARIABLEDICTIONARY
350
7ED
  0
DICTIONARY
  5
D
102
{ACAD_REACTORS
330
C
102
}
330
C
100
AcDbDictionary
  0
DICTIONARY
  5
1A
102
{ACAD_REACTORS
330
C
102
}
330
C
100
AcDbDictionary
  0
DICTIONARY
  5
3B
102
{ACAD_REACTORS
330
C
102
}
330
C
100
AcDbDictionary
  3
BYBLOCK
350
3D
  3
BYLAYER
350
3C
  3
GLOBAL
350
3E
  0
DICTIONARY
  5
7EF
102
{ACAD_REACTORS
330
C
102
}
330
C
100
AcDbDictionary
  0
DICTIONARY
  5
17
102
{ACAD_REACTORS
330
C
102
}
330
C
100
AcDbDictionary
  3
STANDARD
350
18
  0
DICTIONARY
  5
19
102
{ACAD_REACTORS
330
C
102
}
330
C
100
AcDbDictionary
  0
DICTIONARY
  5
18E
102
{ACAD_REACTORS
330
C
102
}
330
C
100
AcDbDictionary
  3
A0
350
18F
  3
A1
350
190
  3
A2
350
191
  3
A3
350
192
  3
A4
350
193
  3
A5
350
194
  3
A6
350
195
  3
A7
350
196
  3
A8
350
197
  3
A9
350
198
  3
B0
350
199
  3
B1
350
19A
  3
B2
350
19B
  3
B3
350
19C
  3
B4
350
19D
  3
B5
350
19E
  3
B6
350
19F
  3
B7
350
1A0
  3
B8
350
1A1
  3
B9
350
1A2
  3
C0
350
1A3
  3
C1
350
1A4
  3
C2
350
1A5
  3
C3
350
1A6
  3
C4
350
1A7
  3
C5
350
1A8
  3
C6
350
1A9
  3
C7
350
1AA
  3
C8
350
1AB
  3
C9
350
1AC
  3
D0
350
1AD
  3
D1
350
1AE
  3
D2
350
1AF
  0
DICTIONARY
  5
2A
102
{ACAD_REACTORS
330
C
102
}
330
C
100
AcDbDictionary
  3
2DWIREFRAME
350
2F
  3
3D_HIDDEN
350
31
  3
3DWIREFRAME
350
30
  3
BASIC
350
32
  3
BRIGHTEN
350
36
  3
COLORCHANGE
350
3A
  3
CONCEPTUAL
350
34
  3
DIM
350
35
  3
FACEPATTERN
350
39
  3
FLAT
350
2B
  3
FLATWITHEDGES
350
2C
  3
GOURAUD
350
2D
  3
GOURAUDWITHEDGES
350
2E
  3
LINEPATTERN
350
38
  3
REALISTIC
350
33
  3
THICKEN
350
37
  0
DICTIONARY
  5
7CD
102
{ACAD_REACTORS
330
C
102
}
330
C
100
AcDbDictionary
  3
CEPSNTYPE
350
7D6
  3
DIMSTYLEDATA
350
7EC
  3
FINGERPRINTGUID
350
7D7
  3
HYPERLINKBASE
350
7D0
  3
INSUNITS
350
7D5
  3
LAYOUTDICT
350
7D2
  3
LWETCUNION
350
7D4
  3
PLOTSETDICT
350
7D3
  3
PSVPSCALE
350
7D9
  3
PUCSBASE
350
7DC
  3
PUCSORGBACK
350
7E2
  3
PUCSORGBOTTOM
350
7DE
  3
PUCSORGFRONT
350
7E1
  3
PUCSORGLEFT
350
7DF
  3
PUCSORGRIGHT
350
7E0
  3
PUCSORGTOP
350
7DD
  3
PUCSORTHOREF
350
7DA
  3
PUCSORTHOVIEW
350
7DB
  3
STYLESHEET
350
7D1
  3
TSTACKALIGN
350
7CE
  3
TSTACKSIZE
350
7CF
  3
UCSBASE
350
7E5
  3
UCSORGBACK
350
7EB
  3
UCSORGBOTTOM
350
7E7
  3
UCSORGFRONT
350
7EA
  3
UCSORGLEFT
350
7E8
  3
UCSORGRIGHT
350
7E9
  3
UCSORGTOP
350
7E6
  3
UCSORTHOREF
350
7E3
  3
UCSORTHOVIEW
350
7E4
  3
VERSIONGUID
350
7D8
  0
DICTIONARY
  5
7ED
102
{ACAD_REACTORS
330
C
102
}
330
C
100
AcDbDictionary
  3
CANNOSCALE
350
7F0
  3
DIMASSOC
350
7F1
  3
HIDETEXT
350
7F2
  0
MATERIAL
  5
3D
102
{ACAD_REACTORS
330
3B
102
}
102
{ACAD_XDICTIONARY
360
7F5
102
}
330
3B
100
AcDbMaterial
  1
ByBlock
  0
MATERIAL
  5
3C
102
{ACAD_REACTORS
330
3B
102
}
102
{ACAD_XDICTIONARY
360
7F3
102
}
330
3B
100
AcDbMaterial
  1
ByLayer
  0
MATERIAL
  5
3E
102
{ACAD_REACTORS
330
3B
102
}
102
{ACAD_XDICTIONARY
360
7F7
102
}
330
3B
100
AcDbMaterial
  1
Global
  0
MLINESTYLE
  5
18
102
{ACAD_REACTORS
330
17
102
}
330
17
100
AcDbMlineStyle
  2
Standard
 70
     0
  3

 62
   256
 51
90.0
 52
90.0
 71
     2
 49
0.5
 62
   256
  6
BYLAYER
 49
-0.5
 62
   256
  6
BYLAYER
  0
ACAD_PROXY_OBJECT
  5
18F
102
{ACAD_REACTORS
330
18E
102
}
330
18E
100
AcDbProxyObject
 90
      499
 91
      503
 93
       41
310
903313A31580
  0
ACAD_PROXY_OBJECT
  5
190
102
{ACAD_REACTORS
330
18E
102
}
330
18E
100
AcDbProxyObject
 90
      499
 91
      503
 93
      105
310
903313A324000000000000004000
  0
ACAD_PROXY_OBJECT
  5
191
102
{ACAD_REACTORS
330
18E
102
}
330
18E
100
AcDbProxyObject
 90
      499
 91
      503
 93
      105
310
903313A344000000000000104000
  0
ACAD_PROXY_OBJECT
  5
192
102
{ACAD_REACTORS
330
18E
102
}
330
18E
100
AcDbProxyObject
 90
      499
 91
      503
 93
      105
310
903313A354000000000000144000
  0
ACAD_PROXY_OBJECT
  5
193
102
{ACAD_REACTORS
330
18E
102
}
330
18E
100
AcDbProxyObject
 90
      499
 91
      503
 93
      105
310
903313A384000000000000204000
  0
ACAD_PROXY_OBJECT
  5
194
102
{ACAD_REACTORS
330
18E
102
}
330
18E
100
AcDbProxyObject
 90
      499
 91
      503
 93
      113
310
904313A31304000000000000244000
  0
ACAD_PROXY_OBJECT
  5
195
102
{ACAD_REACTORS
330
18E
102
}
330
18E
100
AcDbProxyObject
 90
      499
 91
      503
 93
      113
310
904313A31364000000000000304000
  0
ACAD_PROXY_OBJECT
  5
196
102
{ACAD_REACTORS
330
18E
102
}
330
18E
100
AcDbProxyObject
 90
      499
 91
      503
 93
      113
310
904313A32304000000000000344000
  0
ACAD_PROXY_OBJECT
  5
197
102
{ACAD_REACTORS
330
18E
102
}
330
18E
100
AcDbProxyObject
 90
      499
 91
      503
 93
      113
310
904313A333040000000000003E4000
  0
ACAD_PROXY_OBJECT
  5
198
102
{ACAD_REACTORS
330
18E
102
}
330
18E
100
AcDbProxyObject
 90
      499
 91
      503
 93
      113
310
904313A34304000000000000444000
  0
ACAD_PROXY_OBJECT
  5
199
102
{ACAD_REACTORS
330
18E
102
}
330
18E
100
AcDbProxyObject
 90
      499
 91
      503
 93
      113
310
904313A35304000000000000494000
  0
ACAD_PROXY_OBJECT
  5
19A
102
{ACAD_REACTORS
330
18E
102
}
330
18E
100
AcDbProxyObject
 90
      499
 91
      503
 93
      121
310
905313A3130304000000000000594000
  0
ACAD_PROXY_OBJECT
  5
19B
102
{ACAD_REACTORS
330
18E
102
}
330
18E
100
AcDbProxyObject
 90
      499
 91
      503
 93
      105
310
903323A310000000000000010100
  0
ACAD_PROXY_OBJECT
  5
19C
102
{ACAD_REACTORS
330
18E
102
}
330
18E
100
AcDbProxyObject
 90
      499
 91
      503
 93
      105
310
903343A310000000000000410100
  0
ACAD_PROXY_OBJECT
  5
19D
102
{ACAD_REACTORS
330
18E
102
}
330
18E
100
AcDbProxyObject
 90
      499
 91
      503
 93
      105
310
903383A310000000000000810100
  0
ACAD_PROXY_OBJECT
  5
19E
102
{ACAD_REACTORS
330
18E
102
}
330
18E
100
AcDbProxyObject
 90
      499
 91
      503
 93
      113
310
90431303A310000000000000910100
  0
ACAD_PROXY_OBJECT
  5
19F
102
{ACAD_REACTORS
330
18E
102
}
330
18E
100
AcDbProxyObject
 90
      499
 91
      503
 93
      121
310
9053130303A310000000000001650100
  0
ACAD_PROXY_OBJECT
  5
1A0
102
{ACAD_REACTORS
330
18E
102
}
330
18E
100
AcDbProxyObject
 90
      499
 91
      503
 93
      257
310
90E312F31323822203D2031272D3022000000000000200FC000000000000284000
  0
ACAD_PROXY_OBJECT
  5
1A1
102
{ACAD_REACTORS
330
18E
102
}
330
18E
100
AcDbProxyObject
 90
      499
 91
      503
 93
      249
310
90D312F363422203D2031272D3022000000000000240FC000000000000284000
  0
ACAD_PROXY_OBJECT
  5
1A2
102
{ACAD_REACTORS
330
18E
102
}
330
18E
100
AcDbProxyObject
 90
      499
 91
      503
 93
      249
310
90D312F333222203D2031272D3022000000000000280FC000000000000284000
  0
ACAD_PROXY_OBJECT
  5
1A3
102
{ACAD_REACTORS
330
18E
102
}
330
18E
100
AcDbProxyObject
 90
      499
 91
      503
 93
      249
310
90D312F313622203D2031272D30220000000000002C0FC000000000000284000
  0
ACAD_PROXY_OBJECT
  5
1A4
102
{ACAD_REACTORS
330
18E
102
}
330
18E
100
AcDbProxyObject
 90
      499
 91
      503
 93
      249
310
90D332F333222203D2031272D30220000000000002E0FC000000000000284000
  0
ACAD_PROXY_OBJECT
  5
1A5
102
{ACAD_REACTORS
330
18E
102
}
330
18E
100
AcDbProxyObject
 90
      499
 91
      503
 93
      241
310
90C312F3822203D2031272D3022000000000000300FC000000000000284000
  0
ACAD_PROXY_OBJECT
  5
1A6
102
{ACAD_REACTORS
330
18E
102
}
330
18E
100
AcDbProxyObject
 90
      499
 91
      503
 93
      249
310
90D332F313622203D2031272D3022000000000000320FC000000000000284000
  0
ACAD_PROXY_OBJECT
  5
1A7
102
{ACAD_REACTORS
330
18E
102
}
330
18E
100
AcDbProxyObject
 90
      499
 91
      503
 93
      241
310
90C312F3422203D2031272D3022000000000000340FC000000000000284000
  0
ACAD_PROXY_OBJECT
  5
1A8
102
{ACAD_REACTORS
330
18E
102
}
330
18E
100
AcDbProxyObject
 90
      499
 91
      503
 93
      241
310
90C332F3822203D2031272D3022000000000000360FC000000000000284000
  0
ACAD_PROXY_OBJECT
  5
1A9
102
{ACAD_REACTORS
330
18E
102
}
330
18E
100
AcDbProxyObject
 90
      499
 91
      503
 93
      241
310
90C312F3222203D2031272D3022000000000000380FC000000000000284000
  0
ACAD_PROXY_OBJECT
  5
1AA
102
{ACAD_REACTORS
330
18E
102
}
330
18E
100
AcDbProxyObject
 90
      499
 91
      503
 93
      241
310
90C332F3422203D2031272D30220000000000003A0FC000000000000284000
  0
ACAD_PROXY_OBJECT
  5
1AB
102
{ACAD_REACTORS
330
18E
102
}
330
18E
100
AcDbProxyObject
 90
      499
 91
      503
 93
      161
310
90A3122203D2031272D30224000000000000284000
  0
ACAD_PROXY_OBJECT
  5
1AC
102
{ACAD_REACTORS
330
18E
102
}
330
18E
100
AcDbProxyObject
 90
      499
 91
      503
 93
      257
310
90E312D312F3222203D2031272D30220000000000003E0FC000000000000284000
  0
ACAD_PROXY_OBJECT
  5
1AD
102
{ACAD_REACTORS
330
18E
102
}
330
18E
100
AcDbProxyObject
 90
      499
 91
      503
 93
      225
310
90A3322203D2031272D302200000000000002100000000000000284000
  0
ACAD_PROXY_OBJECT
  5
1AE
102
{ACAD_REACTORS
330
18E
102
}
330
18E
100
AcDbProxyObject
 90
      499
 91
      503
 93
      225
310
90A3622203D2031272D302200000000000006100000000000000284000
  0
ACAD_PROXY_OBJECT
  5
1AF
102
{ACAD_REACTORS
330
18E
102
}
330
18E
100
AcDbProxyObject
 90
      499
 91
      503
 93
      249
310
90D31272D3022203D2031272D30220000000000000A100000000000000284000
  0
ACAD_PROXY_OBJECT
  5
2F
102
{ACAD_REACTORS
330
2A
102
}
330
2A
100
AcDbProxyObject
 90
      499
 91
      501
 93
      436
310
42CC9915DA5C99599C985B595049028333333333333E3BF0000000000000FB0107901411070040501600405405064090741402480A0340
1001
ACAD
1000
AcDbSavedByObjectVersion
1070
     0
  0
ACAD_PROXY_OBJECT
  5
31
102
{ACAD_REACTORS
330
2A
102
}
330
2A
100
AcDbProxyObject
 90
      499
 91
      501
 93
      500
310
424CD108121A5919195B90640502408333333333333E3BF0000000000000FB01079024090700405020000000000001110200405405064090740C02480A0340
1001
ACAD
1000
AcDbSavedByObjectVersion
1070
     0
  0
ACAD_PROXY_OBJECT
  5
30
102
{ACAD_REACTORS
330
2A
102
}
330
2A
100
AcDbProxyObject
 90
      499
 91
      501
 93
      436
310
42CCD915DA5C99599C985B595059028333333333333E3BF0000000000000FB0107901411070040501600405405064090741402480A0340
1001
ACAD
1000
AcDbSavedByObjectVersion
1070
     0
  0
ACAD_PROXY_OBJECT
  5
32
102
{ACAD_REACTORS
330
2A
102
}
330
2A
100
AcDbProxyObject
 90
      499
 91
      501
 93
      388
310
4150985CDA58D07406404333333333333E3BF0000000000000FB0107A41107004050150841D405064090741402480A0350
1001
ACAD
1000
AcDbSavedByObjectVersion
1070
     0
  0
ACAD_PROXY_OBJECT
  5
36
102
{ACAD_REACTORS
330
2A
102
}
330
2A
100
AcDbProxyObject
 90
      499
 91
      501
 93
      428
310
42109C9A59DA1D195B90C409028333333333333E3BF0000000000000FB010790141107004050150841D405064090741402480A029950
1001
ACAD
1000
AcDbSavedByObjectVersion
1070
     0
  0
ACAD_PROXY_OBJECT
  5
3A
102
{ACAD_REACTORS
330
2A
102
}
330
2A
100
AcDbProxyObject
 90
      499
 91
      501
 93
      452
310
42D0DBDB1BDC90DA185B99D95104090240C333333333333E3BF0000000000000FB0108901411070040501508421405064090741402480A0350
1001
ACAD
1000
AcDbSavedByObjectVersion
1070
     0
  0
ACAD_PROXY_OBJECT
  5
34
102
{ACAD_REACTORS
330
2A
102
}
330
2A
100
AcDbProxyObject
 90
      499
 91
      501
 93
      500
310
4290DBDB98D95C1D1D585B10940D028333333333333E3BF0000000000000FB0107902409070040501000000000000111010841D405064090740C02480A0340
1001
ACAD
1000
AcDbSavedByObjectVersion
1070
     0
  0
ACAD_PROXY_OBJECT
  5
35
102
{ACAD_REACTORS
330
2A
102
}
330
2A
100
AcDbProxyObject
 90
      499
 91
      501
 93
      412
310
40D11A5B50B409028333333333333E3BF0000000000000FB010790141107004050150841D405064090741402480A02677FFFFFD0
1001
ACAD
1000
AcDbSavedByObjectVersion
1070
     0
  0
ACAD_PROXY_OBJECT
  5
39
102
{ACAD_REACTORS
330
2A
102
}
330
2A
100
AcDbProxyObject
 90
      499
 91
      501
 93
      444
310
42D19858D95C185D1D195C9B90F409028333333333333E3BF0000000000000FB010790141107004050150841D405064090741402480A0350
1001
ACAD
1000
AcDbSavedByObjectVersion
1070
     0
  0
ACAD_PROXY_OBJECT
  5
2B
102
{ACAD_REACTORS
330
2A
102
}
330
2A
100
AcDbProxyObject
 90
      499
 91
      501
 93
      388
310
41119B185D240901404333333333333E3BF0000000000000F9010740A41107004050150841D405064090741402480A1B50
1001
ACAD
1000
AcDbSavedByObjectVersion
1070
     0
  0
ACAD_PROXY_OBJECT
  5
2C
102
{ACAD_REACTORS
330
2A
102
}
330
2A
100
AcDbProxyObject
 90
      499
 91
      501
 93
      476
310
43519B185D15DA5D1A115919D95CD0140901404333333333333E3BF0000000000000F9010740901411070040501600405405064090741402480A1B50
1001
ACAD
1000
AcDbSavedByObjectVersion
1070
     0
  0
ACAD_PROXY_OBJECT
  5
2D
102
{ACAD_REACTORS
330
2A
102
}
330
2A
100
AcDbProxyObject
 90
      499
 91
      501
 93
      412
310
41D1DBDD5C985D5910240902404333333333333E3BF0000000000000F9010740A411070040501641D405064090741402480A1B50
1001
ACAD
1000
AcDbSavedByObjectVersion
1070
     0
  0
ACAD_PROXY_OBJECT
  5
2E
102
{ACAD_REACTORS
330
2A
102
}
330
2A
100
AcDbProxyObject
 90
      499
 91
      501
 93
      500
310
4411DBDD5C985D5915DA5D1A115919D95CD0340902404333333333333E3BF0000000000000F9010740901411070040501600405405064090741402480A1B50
1001
ACAD
1000
AcDbSavedByObjectVersion
1070
     0
  0
ACAD_PROXY_OBJECT
  5
38
102
{ACAD_REACTORS
330
2A
102
}
330
2A
100
AcDbProxyObject
 90
      499
 91
      501
 93
      444
310
42D31A5B995C185D1D195C9B90E409028333333333333E3BF0000000000000FB010790141107004050750841D405064090741402483A0350
1001
ACAD
1000
AcDbSavedByObjectVersion
1070
     0
  0
ACAD_PROXY_OBJECT
  5
33
102
{ACAD_REACTORS
330
2A
102
}
330
2A
100
AcDbProxyObject
 90
      499
 91
      501
 93
      420
310
425499585B1A5CDD1A58D08409028333333333333E3BF0000000000000FB01079019070040501508421405064090741402480A1B40
1001
ACAD
1000
AcDbSavedByObjectVersion
1070
     0
  0
ACAD_PROXY_OBJECT
  5
37
102
{ACAD_REACTORS
330
2A
102
}
330
2A
100
AcDbProxyObject
 90
      499
 91
      501
 93
      412
310
41D51A1A58DAD95B90D409028333333333333E3BF0000000000000FB010790141107004050150C41D405064090741402480A0350
1001
ACAD
1000
AcDbSavedByObjectVersion
1070
     0
  0
XRECORD
  5
7D6
102
{ACAD_REACTORS
330
7CD
102
}
330
7CD
100
AcDbXrecord
 90
        0
  0
XRECORD
  5
7EC
102
{ACAD_REACTORS
330
7CD
102
}
330
7CD
100
AcDbXrecord
1000
DSTYLE
1002
{
1070
   340
340
11
1002
}
  0
XRECORD
  5
7D7
102
{ACAD_REACTORS
330
7CD
102
}
330
7CD
100
AcDbXrecord
  1
{F81388F2-4A67-4617-88DF-BA6AFEE5725A}
  0
XRECORD
  5
7D0
102
{ACAD_REACTORS
330
7CD
102
}
330
7CD
100
AcDbXrecord
  1

  0
XRECORD
  5
7D5
102
{ACAD_REACTORS
330
7CD
102
}
330
7CD
100
AcDbXrecord
 90
        1
  0
XRECORD
  5
7D2
102
{ACAD_REACTORS
330
7CD
102
}
330
7CD
100
AcDbXrecord
340
1A
  0
XRECORD
  5
7D4
102
{ACAD_REACTORS
330
7CD
102
}
330
7CD
100
AcDbXrecord
 90
    10781
  0
XRECORD
  5
7D3
102
{ACAD_REACTORS
330
7CD
102
}
330
7CD
100
AcDbXrecord
340
19
  0
XRECORD
  5
7D9
102
{ACAD_REACTORS
330
7CD
102
}
330
7CD
100
AcDbXrecord
 40
0.0
  0
XRECORD
  5
7DC
102
{ACAD_REACTORS
330
7CD
102
}
330
7CD
100
AcDbXrecord
340
0
  0
XRECORD
  5
7E2
102
{ACAD_REACTORS
330
7CD
102
}
330
7CD
100
AcDbXrecord
 10
0.0
 20
0.0
 30
0.0
  0
XRECORD
  5
7DE
102
{ACAD_REACTORS
330
7CD
102
}
330
7CD
100
AcDbXrecord
 10
0.0
 20
0.0
 30
0.0
  0
XRECORD
  5
7E1
102
{ACAD_REACTORS
330
7CD
102
}
330
7CD
100
AcDbXrecord
 10
0.0
 20
0.0
 30
0.0
  0
XRECORD
  5
7DF
102
{ACAD_REACTORS
330
7CD
102
}
330
7CD
100
AcDbXrecord
 10
0.0
 20
0.0
 30
0.0
  0
XRECORD
  5
7E0
102
{ACAD_REACTORS
330
7CD
102
}
330
7CD
100
AcDbXrecord
 10
0.0
 20
0.0
 30
0.0
  0
XRECORD
  5
7DD
102
{ACAD_REACTORS
330
7CD
102
}
330
7CD
100
AcDbXrecord
 10
0.0
 20
0.0
 30
0.0
  0
XRECORD
  5
7DA
102
{ACAD_REACTORS
330
7CD
102
}
330
7CD
100
AcDbXrecord
340
0
  0
XRECORD
  5
7DB
102
{ACAD_REACTORS
330
7CD
102
}
330
7CD
100
AcDbXrecord
 70
     0
  0
XRECORD
  5
7D1
102
{ACAD_REACTORS
330
7CD
102
}
330
7CD
100
AcDbXrecord
  1

  0
XRECORD
  5
7CE
102
{ACAD_REACTORS
330
7CD
102
}
330
7CD
100
AcDbXrecord
 90
        1
  0
XRECORD
  5
7CF
102
{ACAD_REACTORS
330
7CD
102
}
330
7CD
100
AcDbXrecord
 90
       70
  0
XRECORD
  5
7E5
102
{ACAD_REACTORS
330
7CD
102
}
330
7CD
100
AcDbXrecord
340
0
  0
XRECORD
  5
7EB
102
{ACAD_REACTORS
330
7CD
102
}
330
7CD
100
AcDbXrecord
 10
0.0
 20
0.0
 30
0.0
  0
XRECORD
  5
7E7
102
{ACAD_REACTORS
330
7CD
102
}
330
7CD
100
AcDbXrecord
 10
0.0
 20
0.0
 30
0.0
  0
XRECORD
  5
7EA
102
{ACAD_REACTORS
330
7CD
102
}
330
7CD
100
AcDbXrecord
 10
0.0
 20
0.0
 30
0.0
  0
XRECORD
  5
7E8
102
{ACAD_REACTORS
330
7CD
102
}
330
7CD
100
AcDbXrecord
 10
0.0
 20
0.0
 30
0.0
  0
XRECORD
  5
7E9
102
{ACAD_REACTORS
330
7CD
102
}
330
7CD
100
AcDbXrecord
 10
0.0
 20
0.0
 30
0.0
  0
XRECORD
  5
7E6
102
{ACAD_REACTORS
330
7CD
102
}
330
7CD
100
AcDbXrecord
 10
0.0
 20
0.0
 30
0.0
  0
XRECORD
  5
7E3
102
{ACAD_REACTORS
330
7CD
102
}
330
7CD
100
AcDbXrecord
340
0
  0
XRECORD
  5
7E4
102
{ACAD_REACTORS
330
7CD
102
}
330
7CD
100
AcDbXrecord
 70
     0
  0
XRECORD
  5
7D8
102
{ACAD_REACTORS
330
7CD
102
}
330
7CD
100
AcDbXrecord
  1
{FAEB1C32-E019-11D5-929B-00C0DF256EC4}
  0
DICTIONARYVAR
  5
7F0
102
{ACAD_REACTORS
330
7ED
102
}
330
7ED
100
DictionaryVariables
280
     0
  1
1:1
  0
DICTIONARYVAR
  5
7F1
102
{ACAD_REACTORS
330
7ED
102
}
330
7ED
100
DictionaryVariables
280
     0
  1
2
  0
DICTIONARYVAR
  5
7F2
102
{ACAD_REACTORS
330
7ED
102
}
330
7ED
100
DictionaryVariables
280
     0
  1
1
  0
DICTIONARY
  5
7F5
330
3D
100
AcDbDictionary
280
     1
  3
ACAD_XREC_ROUNDTRIP
360
7F6
  0
DICTIONARY
  5
7F3
330
3C
100
AcDbDictionary
280
     1
  3
ACAD_XREC_ROUNDTRIP
360
7F4
  0
DICTIONARY
  5
7F7
330
3E
100
AcDbDictionary
280
     1
  3
ACAD_XREC_ROUNDTRIP
360
7F8
  0
XRECORD
  5
7F6
102
{ACAD_REACTORS
330
7F5
102
}
330
7F5
100
AcDbXrecord
102
MATERIAL
148
0.0
149
0.0
149
0.0
 93
        0
 94
      127
282
     0
 72
     1
 77
     1
171
     1
175
     1
179
     1
273
     0
  0
XRECORD
  5
7F4
102
{ACAD_REACTORS
330
7F3
102
}
330
7F3
100
AcDbXrecord
102
MATERIAL
148
0.0
149
0.0
149
0.0
 93
        0
 94
      127
282
     0
 72
     1
 77
     1
171
     1
175
     1
179
     1
273
     0
  0
XRECORD
  5
7F8
102
{ACAD_REACTORS
330
7F7
102
}
330
7F7
100
AcDbXrecord
102
MATERIAL
148
0.0
149
0.0
149
0.0
 93
        0
 94
      127
282
     0
 72
     1
 77
     1
171
     1
175
     1
179
     1
273
     0
  0
ENDSEC
  0
EOF
