  0
SECTION
  2
HEADER
  9
$ACADVER
  1
AC1014
  9
$ACADMAINTVER
 70
     9
  9
$DWGCODEPAGE
  3
ANSI_1252
  9
$INSBASE
 10
0.0
 20
0.0
 30
0.0
  9
$EXTMIN
 10
1.000000000000000E+20
 20
1.000000000000000E+20
 30
1.000000000000000E+20
  9
$EXTMAX
 10
-1.000000000000000E+20
 20
-1.000000000000000E+20
 30
-1.000000000000000E+20
  9
$LIMMIN
 10
0.0
 20
0.0
  9
$LIMMAX
 10
12.0
 20
9.0
  9
$ORTHOMODE
 70
     0
  9
$REGENMODE
 70
     1
  9
$FILLMODE
 70
     1
  9
$QTEXTMODE
 70
     0
  9
$MIRRTEXT
 70
     1
  9
$DRAGMODE
 70
     2
  9
$LTSCALE
 40
1.0
  9
$OSMODE
 70
    37
  9
$ATTMODE
 70
     1
  9
$TEXTSIZE
 40
0.2
  9
$TRACEWID
 40
0.05
  9
$TEXTSTYLE
  7
STANDARD
  9
$CLAYER
  8
0
  9
$CELTYPE
  6
BYLAYER
  9
$CECOLOR
 62
   256
  9
$CELTSCALE
 40
1.0
  9
$DELOBJ
 70
     1
  9
$DISPSILH
 70
     0
  9
$DIMSCALE
 40
1.0
  9
$DIMASZ
 40
0.18
  9
$DIMEXO
 40
0.0625
  9
$DIMDLI
 40
0.38
  9
$DIMRND
 40
0.0
  9
$DIMDLE
 40
0.0
  9
$DIMEXE
 40
0.18
  9
$DIMTP
 40
0.0
  9
$DIMTM
 40
0.0
  9
$DIMTXT
 40
0.18
  9
$DIMCEN
 40
0.09
  9
$DIMTSZ
 40
0.0
  9
$DIMTOL
 70
     0
  9
$DIMLIM
 70
     0
  9
$DIMTIH
 70
     1
  9
$DIMTOH
 70
     1
  9
$DIMSE1
 70
     0
  9
$DIMSE2
 70
     0
  9
$DIMTAD
 70
     0
  9
$DIMZIN
 70
     0
  9
$DIMBLK
  1

  9
$DIMASO
 70
     1
  9
$DIMSHO
 70
     1
  9
$DIMPOST
  1

  9
$DIMAPOST
  1

  9
$DIMALT
 70
     0
  9
$DIMALTD
 70
     2
  9
$DIMALTF
 40
25.4
  9
$DIMLFAC
 40
1.0
  9
$DIMTOFL
 70
     0
  9
$DIMTVP
 40
0.0
  9
$DIMTIX
 70
     0
  9
$DIMSOXD
 70
     0
  9
$DIMSAH
 70
     0
  9
$DIMBLK1
  1

  9
$DIMBLK2
  1

  9
$DIMSTYLE
  2
STANDARD
  9
$DIMCLRD
 70
     0
  9
$DIMCLRE
 70
     0
  9
$DIMCLRT
 70
     0
  9
$DIMTFAC
 40
1.0
  9
$DIMGAP
 40
0.09
  9
$DIMJUST
 70
     0
  9
$DIMSD1
 70
     0
  9
$DIMSD2
 70
     0
  9
$DIMTOLJ
 70
     1
  9
$DIMTZIN
 70
     0
  9
$DIMALTZ
 70
     0
  9
$DIMALTTZ
 70
     0
  9
$DIMFIT
 70
     3
  9
$DIMUPT
 70
     0
  9
$DIMUNIT
 70
     2
  9
$DIMDEC
 70
     4
  9
$DIMTDEC
 70
     4
  9
$DIMALTU
 70
     2
  9
$DIMALTTD
 70
     2
  9
$DIMTXSTY
  7
STANDARD
  9
$DIMAUNIT
 70
     0
  9
$LUNITS
 70
     2
  9
$LUPREC
 70
     4
  9
$SKETCHINC
 40
0.1
  9
$FILLETRAD
 40
0.5
  9
$AUNITS
 70
     0
  9
$AUPREC
 70
     0
  9
$MENU
  1
.
  9
$ELEVATION
 40
0.0
  9
$PELEVATION
 40
0.0
  9
$THICKNESS
 40
0.0
  9
$LIMCHECK
 70
     0
  9
$CHAMFERA
 40
0.5
  9
$CHAMFERB
 40
0.5
  9
$CHAMFERC
 40
1.0
  9
$CHAMFERD
 40
0.0
  9
$SKPOLY
 70
     0
  9
$TDCREATE
 40
2455525.487160868
  9
$TDUPDATE
 40
2455525.48716088
  9
$TDINDWG
 40
0.0000000116
  9
$TDUSRTIMER
 40
0.0000000116
  9
$USRTIMER
 70
     1
  9
$ANGBASE
 50
0.0
  9
$ANGDIR
 70
     0
  9
$PDMODE
 70
     0
  9
$PDSIZE
 40
0.0
  9
$PLINEWID
 40
0.0
  9
$COORDS
 70
     1
  9
$SPLFRAME
 70
     0
  9
$SPLINETYPE
 70
     6
  9
$SPLINESEGS
 70
     8
  9
$ATTDIA
 70
     0
  9
$ATTREQ
 70
     1
  9
$HANDLING
 70
     1
  9
$HANDSEED
  5
469
  9
$SURFTAB1
 70
     6
  9
$SURFTAB2
 70
     6
  9
$SURFTYPE
 70
     6
  9
$SURFU
 70
     6
  9
$SURFV
 70
     6
  9
$UCSNAME
  2

  9
$UCSORG
 10
0.0
 20
0.0
 30
0.0
  9
$UCSXDIR
 10
1.0
 20
0.0
 30
0.0
  9
$UCSYDIR
 10
0.0
 20
1.0
 30
0.0
  9
$PUCSNAME
  2

  9
$PUCSORG
 10
0.0
 20
0.0
 30
0.0
  9
$PUCSXDIR
 10
1.0
 20
0.0
 30
0.0
  9
$PUCSYDIR
 10
0.0
 20
1.0
 30
0.0
  9
$USERI1
 70
     0
  9
$USERI2
 70
     0
  9
$USERI3
 70
     0
  9
$USERI4
 70
     0
  9
$USERI5
 70
     0
  9
$USERR1
 40
0.0
  9
$USERR2
 40
0.0
  9
$USERR3
 40
0.0
  9
$USERR4
 40
0.0
  9
$USERR5
 40
0.0
  9
$WORLDVIEW
 70
     1
  9
$SHADEDGE
 70
     3
  9
$SHADEDIF
 70
    70
  9
$TILEMODE
 70
     1
  9
$MAXACTVP
 70
    64
  9
$PINSBASE
 10
0.0
 20
0.0
 30
0.0
  9
$PLIMCHECK
 70
     0
  9
$PEXTMIN
 10
1.000000000000000E+20
 20
1.000000000000000E+20
 30
1.000000000000000E+20
  9
$PEXTMAX
 10
-1.000000000000000E+20
 20
-1.000000000000000E+20
 30
-1.000000000000000E+20
  9
$PLIMMIN
 10
0.0
 20
0.0
  9
$PLIMMAX
 10
12.0
 20
9.0
  9
$UNITMODE
 70
     0
  9
$VISRETAIN
 70
     1
  9
$PLINEGEN
 70
     0
  9
$PSLTSCALE
 70
     1
  9
$TREEDEPTH
 70
  3020
  9
$PICKSTYLE
 70
     1
  9
$CMLSTYLE
  2
STANDARD
  9
$CMLJUST
 70
     0
  9
$CMLSCALE
 40
1.0
  9
$PROXYGRAPHICS
 70
     1
  9
$MEASUREMENT
 70
     0
  0
ENDSEC
  0
SECTION
  2
CLASSES
  0
CLASS
  1
ACDBDICTIONARYWDFLT
  2
AcDbDictionaryWithDefault
  3
ObjectDBX Classes
 90
        0
280
     0
281
     0
  0
CLASS
  1
VISUALSTYLE
  2
AcDbVisualStyle
  3
ObjectDBX Classes
 90
     4095
280
     0
281
     0
  0
CLASS
  1
MATERIAL
  2
AcDbMaterial
  3
ObjectDBX Classes
 90
     1153
280
     0
281
     0
  0
CLASS
  1
SCALE
  2
AcDbScale
  3
ObjectDBX Classes
 90
     1153
280
     0
281
     0
  0
CLASS
  1
DICTIONARYVAR
  2
AcDbDictionaryVar
  3
ObjectDBX Classes
 90
        0
280
     0
281
     0
  0
CLASS
  1
XRECORD
  2
AcDbXrecord
  3
AutoCAD 2000
 90
        0
280
     0
281
     0
  0
CLASS
  1
LWPOLYLINE
  2
AcDbPolyline
  3
AutoCAD 2000
 90
        0
280
     0
281
     1
  0
CLASS
  1
HATCH
  2
AcDbHatch
  3
AutoCAD 2000
 90
        0
280
     0
281
     1
  0
CLASS
  1
ACDBPLACEHOLDER
  2
AcDbPlaceHolder
  3
ObjectDBX Classes
 90
        0
280
     0
281
     0
  0
CLASS
  1
LAYOUT
  2
AcDbLayout
  3
ObjectDBX Classes
 90
        0
280
     0
281
     0
  0
ENDSEC
  0
SECTION
  2
TABLES
  0
TABLE
  2
VPORT
  5
8
330
0
100
AcDbSymbolTable
 70
     1
  0
VPORT
  5
29
330
8
100
AcDbSymbolTableRecord
100
AcDbViewportTableRecord
  2
*ACTIVE
 70
     0
 10
0.0
 20
0.0
 11
1.0
 21
1.0
 12
0.0
 22
0.0
 13
0.0
 23
0.0
 14
0.5
 24
0.5
 15
0.5
 25
0.5
 16
-0.449609220027967
 26
0.4496091902256012
 36
0.4496092107146978
 17
0.0000000000000435
 27
0.2916666567325592
 37
-0.020833333954215
 40
1.893818497657776
 41
0.5280337061005441
 42
50.0
 43
0.0
 44
0.0
 50
0.0
 51
240.0000010963458
 71
     0
 72
   100
 73
     1
 74
     3
 75
     0
 76
     0
 77
     0
 78
     0
  0
ENDTAB
  0
TABLE
  2
LTYPE
  5
5
330
0
100
AcDbSymbolTable
 70
     1
  0
LTYPE
  5
14
330
5
100
AcDbSymbolTableRecord
100
AcDbLinetypeTableRecord
  2
BYBLOCK
 70
     0
  3

 72
    65
 73
     0
 40
0.0
  0
LTYPE
  5
15
330
5
100
AcDbSymbolTableRecord
100
AcDbLinetypeTableRecord
  2
BYLAYER
 70
     0
  3

 72
    65
 73
     0
 40
0.0
  0
LTYPE
  5
16
330
5
100
AcDbSymbolTableRecord
100
AcDbLinetypeTableRecord
  2
CONTINUOUS
 70
     0
  3
Solid line
 72
    65
 73
     0
 40
0.0
  0
ENDTAB
  0
TABLE
  2
LAYER
  5
2
330
0
100
AcDbSymbolTable
 70
     1
  0
LAYER
  5
10
330
2
100
AcDbSymbolTableRecord
100
AcDbLayerTableRecord
  2
0
 70
     0
 62
     7
  6
CONTINUOUS
  0
ENDTAB
  0
TABLE
  2
STYLE
  5
3
330
0
100
AcDbSymbolTable
 70
     1
  0
STYLE
  5
11
330
3
100
AcDbSymbolTableRecord
100
AcDbTextStyleTableRecord
  2
STANDARD
 70
     0
 40
0.0
 41
1.0
 50
0.0
 71
     0
 42
0.2
  3
txt
  4

  0
ENDTAB
  0
TABLE
  2
VIEW
  5
6
330
0
100
AcDbSymbolTable
 70
     0
  0
ENDTAB
  0
TABLE
  2
UCS
  5
7
330
0
100
AcDbSymbolTable
 70
     0
  0
ENDTAB
  0
TABLE
  2
APPID
  5
9
330
0
100
AcDbSymbolTable
 70
     1
  0
APPID
  5
12
330
9
100
AcDbSymbolTableRecord
100
AcDbRegAppTableRecord
  2
ACAD
 70
     0
  0
ENDTAB
  0
TABLE
  2
DIMSTYLE
  5
A
330
0
100
AcDbSymbolTable
 70
     1
  0
DIMSTYLE
105
27
330
A
100
AcDbSymbolTableRecord
100
AcDbDimStyleTableRecord
  2
STANDARD
 70
     0
  3

  4

  5

  6

  7

 40
1.0
 41
0.18
 42
0.0625
 43
0.38
 44
0.18
 45
0.0
 46
0.0
 47
0.0
 48
0.0
140
0.18
141
0.09
142
0.0
143
25.4
144
1.0
145
0.0
146
1.0
147
0.09
 71
     0
 72
     0
 73
     1
 74
     1
 75
     0
 76
     0
 77
     0
 78
     0
170
     0
171
     2
172
     0
173
     0
174
     0
175
     0
176
     0
177
     0
178
     0
270
     2
271
     4
272
     4
273
     2
274
     2
340
11
275
     0
280
     0
281
     0
282
     0
283
     1
284
     0
285
     0
286
     0
287
     3
288
     0
  0
ENDTAB
  0
TABLE
  2
BLOCK_RECORD
  5
1
330
0
100
AcDbSymbolTable
 70
     9
  0
BLOCK_RECORD
  5
1F
330
1
100
AcDbSymbolTableRecord
100
AcDbBlockTableRecord
  2
*MODEL_SPACE
  0
BLOCK_RECORD
  5
1B
330
1
100
AcDbSymbolTableRecord
100
AcDbBlockTableRecord
  2
*PAPER_SPACE
  0
BLOCK_RECORD
  5
3F
330
1
100
AcDbSymbolTableRecord
100
AcDbBlockTableRecord
  2
_STYLE_LIBRARY__DWFW3D_PUB
  0
BLOCK_RECORD
  5
42
330
1
100
AcDbSymbolTableRecord
100
AcDbBlockTableRecord
  2
*U2
  0
BLOCK_RECORD
  5
46
330
1
100
AcDbSymbolTableRecord
100
AcDbBlockTableRecord
  2
2
  0
BLOCK_RECORD
  5
4A
330
1
100
AcDbSymbolTableRecord
100
AcDbBlockTableRecord
  2
3
  0
BLOCK_RECORD
  5
4E
330
1
100
AcDbSymbolTableRecord
100
AcDbBlockTableRecord
  2
4
  0
BLOCK_RECORD
  5
52
330
1
100
AcDbSymbolTableRecord
100
AcDbBlockTableRecord
  2
5
  0
BLOCK_RECORD
  5
56
330
1
100
AcDbSymbolTableRecord
100
AcDbBlockTableRecord
  2
*U7
  0
BLOCK_RECORD
  5
39E
330
1
100
AcDbSymbolTableRecord
100
AcDbBlockTableRecord
  2
*U8
  0
ENDTAB
  0
ENDSEC
  0
SECTION
  2
BLOCKS
  0
BLOCK
  5
20
330
1F
100
AcDbEntity
  8
0
100
AcDbBlockBegin
  2
*MODEL_SPACE
 70
     0
 10
0.0
 20
0.0
 30
0.0
  3
*MODEL_SPACE
  1

  0
ENDBLK
  5
21
330
1F
100
AcDbEntity
  8
0
100
AcDbBlockEnd
  0
BLOCK
  5
1C
330
1B
100
AcDbEntity
 67
     1
  8
0
100
AcDbBlockBegin
  2
*PAPER_SPACE
 70
     0
 10
0.0
 20
0.0
 30
0.0
  3
*PAPER_SPACE
  1

  0
ENDBLK
  5
1D
330
1B
100
AcDbEntity
 67
     1
  8
0
100
AcDbBlockEnd
  0
BLOCK
  5
40
330
3F
100
AcDbEntity
  8
0
100
AcDbBlockBegin
  2
_STYLE_LIBRARY__DWFW3D_PUB
 70
     0
 10
0.0
 20
0.0
 30
0.0
  3
_STYLE_LIBRARY__DWFW3D_PUB
  1

  0
ENDBLK
  5
41
330
3F
100
AcDbEntity
  8
0
100
AcDbBlockEnd
  0
BLOCK
  5
44
330
42
100
AcDbEntity
  8
0
100
AcDbBlockBegin
  2
*U2
 70
     1
 10
0.0
 20
0.0
 30
0.0
  3
*U2
  1

  0
INSERT
  5
47
330
42
100
AcDbEntity
  8
0
100
AcDbBlockReference
  2
2
 10
0.0
 20
0.0
 30
0.0
  0
ENDBLK
  5
45
330
42
100
AcDbEntity
  8
0
100
AcDbBlockEnd
  0
BLOCK
  5
48
330
46
100
AcDbEntity
  8
0
100
AcDbBlockBegin
  2
2
 70
     0
 10
0.0
 20
0.0
 30
0.0
  3
2
  1

  0
INSERT
  5
4B
330
46
100
AcDbEntity
  8
0
100
AcDbBlockReference
  2
3
 10
0.0
 20
0.0
 30
0.0
  0
ENDBLK
  5
49
330
46
100
AcDbEntity
  8
0
100
AcDbBlockEnd
  0
BLOCK
  5
4C
330
4A
100
AcDbEntity
  8
0
100
AcDbBlockBegin
  2
3
 70
     0
 10
0.0
 20
0.0
 30
0.0
  3
3
  1

  0
INSERT
  5
4F
330
4A
100
AcDbEntity
  8
0
100
AcDbBlockReference
  2
4
 10
0.0
 20
0.0
 30
0.0
  0
ENDBLK
  5
4D
330
4A
100
AcDbEntity
  8
0
100
AcDbBlockEnd
  0
BLOCK
  5
50
330
4E
100
AcDbEntity
  8
0
100
AcDbBlockBegin
  2
4
 70
     0
 10
0.0
 20
0.0
 30
0.0
  3
4
  1

  0
INSERT
  5
53
330
4E
100
AcDbEntity
  8
0
100
AcDbBlockReference
  2
5
 10
0.0
 20
0.0
 30
0.0
  0
ENDBLK
  5
51
330
4E
100
AcDbEntity
  8
0
100
AcDbBlockEnd
  0
BLOCK
  5
54
330
52
100
AcDbEntity
  8
0
100
AcDbBlockBegin
  2
5
 70
     0
 10
0.0
 20
0.0
 30
0.0
  3
5
  1

  0
INSERT
  5
57
330
52
100
AcDbEntity
  8
0
100
AcDbBlockReference
  2
*U7
 10
0.0
 20
0.0
 30
0.0
  0
ENDBLK
  5
55
330
52
100
AcDbEntity
  8
0
100
AcDbBlockEnd
  0
BLOCK
  5
58
330
56
100
AcDbEntity
  8
0
100
AcDbBlockBegin
  2
*U7
 70
     1
 10
0.0
 20
0.0
 30
0.0
  3
*U7
  1

  0
POLYLINE
  5
5A
330
56
100
AcDbEntity
  8
0
 62
    28
100
AcDbPolyFaceMesh
 66
     1
 10
0.0
 20
0.0
 30
0.0
 70
    64
 71
   430
 72
   404
  0
VERTEX
  5
5B
330
5A
100
AcDbEntity
  8
0
 62
    28
100
AcDbVertex
100
AcDbPolyFaceMeshVertex
 10
0.3333333432674408
 20
-0.0000000000000098
 30
-0.2916666567325592
 70
   192
  0
VERTEX
  5
5C
330
5A
100
AcDbEntity
  8
0
 62
    28
100
AcDbVertex
100
AcDbPolyFaceMeshVertex
 10
0.3333333432674408
 20
0.0104166669771075
 30
-0.2916666567325592
 70
   192
  0
VERTEX
  5
5D
330
5A
100
AcDbEntity
  8
0
 62
    28
100
AcDbVertex
100
AcDbPolyFaceMeshVertex
 10
0.3333333432674408
 20
0.0104166669771075
 30
-0.25
 70
   192
  0
VERTEX
  5
5E
330
5A
100
AcDbEntity
  8
0
 62
    28
100
AcDbVertex
100
AcDbPolyFaceMeshVertex
 10
0.3333333432674408
 20
0.25
 30
-0.25
 70
   192
  0
VERTEX
  5
5F
330
5A
100
AcDbEntity
  8
0
 62
    28
100
AcDbVertex
100
AcDbPolyFaceMeshVertex
 10
0.3333333432674408
 20
0.25
 30
0.25
 70
   192
  0
VERTEX
  5
60
330
5A
100
AcDbEntity
  8
0
 62
    28
100
AcDbVertex
100
AcDbPolyFaceMeshVertex
 10
0.3333333432674408
 20
-0.0000000000000098
 30
0.25
 70
   192
  0
VERTEX
  5
61
330
5A
100
AcDbEntity
  8
0
 62
    28
100
AcDbVertex
100
AcDbPolyFaceMeshVertex
 10
-0.3333333432674408
 20
-0.0000000000000029
 30
0.25
 70
   192
  0
VERTEX
  5
62
330
5A
100
AcDbEntity
  8
0
 62
    28
100
AcDbVertex
100
AcDbPolyFaceMeshVertex
 10
-0.3333333432674408
 20
0.25
 30
0.25
 70
   192
  0
VERTEX
  5
63
330
5A
100
AcDbEntity
  8
0
 62
    28
100
AcDbVertex
100
AcDbPolyFaceMeshVertex
 10
-0.3333333432674408
 20
0.25
 30
-0.25
 70
   192
  0
VERTEX
  5
64
330
5A
100
AcDbEntity
  8
0
 62
    28
100
AcDbVertex
100
AcDbPolyFaceMeshVertex
 10
-0.3333333432674408
 20
0.0104166669771075
 30
-0.25
 70
   192
  0
VERTEX
  5
65
330
5A
100
AcDbEntity
  8
0
 62
    28
100
AcDbVertex
100
AcDbPolyFaceMeshVertex
 10
-0.3333333432674408
 20
0.0104166669771075
 30
-0.2916666567325592
 70
   192
  0
VERTEX
  5
66
330
5A
100
AcDbEntity
  8
0
 62
    28
100
AcDbVertex
100
AcDbPolyFaceMeshVertex
 10
-0.3333333432674408
 20
-0.0000000000000029
 30
-0.2916666567325592
 70
   192
  0
VERTEX
  5
67
330
5A
100
AcDbEntity
  8
0
 62
    28
100
AcDbVertex
100
AcDbPolyFaceMeshVertex
 10
-0.2135416716337204
 20
0.25
 30
0.1187700405716896
 70
   192
  0
VERTEX
  5
68
330
5A
100
AcDbEntity
  8
0
 62
    28
100
AcDbVertex
100
AcDbPolyFaceMeshVertex
 10
-0.2070695757865906
 20
0.25
 30
0.123736247420311
 70
   192
  0
VERTEX
  5
69
330
5A
100
AcDbEntity
  8
0
 62
    28
100
AcDbVertex
100
AcDbPolyFaceMeshVertex
 10
-0.2021033763885498
 20
0.25
 30
0.1302083283662796
 70
   192
  0
VERTEX
  5
6A
330
5A
100
AcDbEntity
  8
0
 62
    28
100
AcDbVertex
100
AcDbPolyFaceMeshVertex
 10
-0.1989814788103104
 20
0.25
 30
0.1377452313899994
 70
   192
  0
VERTEX
  5
6B
330
5A
100
AcDbEntity
  8
0
 62
    28
100
AcDbVertex
100
AcDbPolyFaceMeshVertex
 10
-0.1979166716337204
 20
0.25
 30
0.1458333283662796
 70
   192
  0
VERTEX
  5
6C
330
5A
100
AcDbEntity
  8
0
 62
    28
100
AcDbVertex
100
AcDbPolyFaceMeshVertex
 10
-0.1989814788103104
 20
0.25
 30
0.1539214253425598
 70
   192
  0
VERTEX
  5
6D
330
5A
100
AcDbEntity
  8
0
 62
    28
100
AcDbVertex
100
AcDbPolyFaceMeshVertex
 10
-0.2021033763885498
 20
0.25
 30
0.1614583283662796
 70
   192
  0
VERTEX
  5
6E
330
5A
100
AcDbEntity
  8
0
 62
    28
100
AcDbVertex
100
AcDbPolyFaceMeshVertex
 10
-0.2070695757865906
 20
0.25
 30
0.1679304242134094
 70
   192
  0
VERTEX
  5
6F
330
5A
100
AcDbEntity
  8
0
 62
    28
100
AcDbVertex
100
AcDbPolyFaceMeshVertex
 10
-0.2135416716337204
 20
0.25
 30
0.1728966236114502
 70
   192
  0
VERTEX
  5
70
330
5A
100
AcDbEntity
  8
0
 62
    28
100
AcDbVertex
100
AcDbPolyFaceMeshVertex
 10
-0.2210785746574402
 20
0.25
 30
0.1760185211896896
 70
   192
  0
VERTEX
  5
71
330
5A
100
AcDbEntity
  8
0
 62
    28
100
AcDbVertex
100
AcDbPolyFaceMeshVertex
 10
-0.2291666716337204
 20
0.25
 30
0.1770833283662796
 70
   192
  0
VERTEX
  5
72
330
5A
100
AcDbEntity
  8
0
 62
    28
100
AcDbVertex
100
AcDbPolyFaceMeshVertex
 10
-0.2372547686100006
 20
0.25
 30
0.1760185211896896
 70
   192
  0
VERTEX
  5
73
330
5A
100
AcDbEntity
  8
0
 62
    28
100
AcDbVertex
100
AcDbPolyFaceMeshVertex
 10
-0.2447916716337204
 20
0.25
 30
0.1728966236114502
 70
   192
  0
VERTEX
  5
74
330
5A
100
AcDbEntity
  8
0
 62
    28
100
AcDbVertex
100
AcDbPolyFaceMeshVertex
 10
-0.2512637674808502
 20
0.25
 30
0.1679304242134094
 70
   192
  0
VERTEX
  5
75
330
5A
100
AcDbEntity
  8
0
 62
    28
100
AcDbVertex
100
AcDbPolyFaceMeshVertex
 10
-0.256229966878891
 20
0.25
 30
0.1614583283662796
 70
   192
  0
VERTEX
  5
76
330
5A
100
AcDbEntity
  8
0
 62
    28
100
AcDbVertex
100
AcDbPolyFaceMeshVertex
 10
-0.2593518495559692
 20
0.25
 30
0.1539214253425598
 70
   192
  0
VERTEX
  5
77
330
5A
100
AcDbEntity
  8
0
 62
    28
100
AcDbVertex
100
AcDbPolyFaceMeshVertex
 10
-0.2604166567325592
 20
0.25
 30
0.1458333283662796
 70
   192
  0
VERTEX
  5
78
330
5A
100
AcDbEntity
  8
0
 62
    28
100
AcDbVertex
100
AcDbPolyFaceMeshVertex
 10
-0.2593518495559692
 20
0.25
 30
0.1377452313899994
 70
   192
  0
VERTEX
  5
79
330
5A
100
AcDbEntity
  8
0
 62
    28
100
AcDbVertex
100
AcDbPolyFaceMeshVertex
 10
-0.256229966878891
 20
0.25
 30
0.1302083283662796
 70
   192
  0
VERTEX
  5
7A
330
5A
100
AcDbEntity
  8
0
 62
    28
100
AcDbVertex
100
AcDbPolyFaceMeshVertex
 10
-0.2512637674808502
 20
0.25
 30
0.123736247420311
 70
   192
  0
VERTEX
  5
7B
330
5A
100
AcDbEntity
  8
0
 62
    28
100
AcDbVertex
100
AcDbPolyFaceMeshVertex
 10
-0.2447916716337204
 20
0.25
 30
0.1187700405716896
 70
   192
  0
VERTEX
  5
7C
330
5A
100
AcDbEntity
  8
0
 62
    28
100
AcDbVertex
100
AcDbPolyFaceMeshVertex
 10
-0.2372547686100006
 20
0.25
 30
0.1156481504440308
 70
   192
  0
VERTEX
  5
7D
330
5A
100
AcDbEntity
  8
0
 62
    28
100
AcDbVertex
100
AcDbPolyFaceMeshVertex
 10
-0.2291666716337204
 20
0.25
 30
0.1145833358168602
 70
   192
  0
VERTEX
  5
7E
330
5A
100
AcDbEntity
  8
0
 62
    28
100
AcDbVertex
100
AcDbPolyFaceMeshVertex
 10
-0.2210785746574402
 20
0.25
 30
0.1156481504440308
 70
   192
  0
VERTEX
  5
7F
330
5A
100
AcDbEntity
  8
0
 62
    28
100
AcDbVertex
100
AcDbPolyFaceMeshVertex
 10
0.2070695757865906
 20
0.25
 30
0.123736247420311
 70
   192
  0
VERTEX
  5
80
330
5A
100
AcDbEntity
  8
0
 62
    28
100
AcDbVertex
100
AcDbPolyFaceMeshVertex
 10
0.2021033763885498
 20
0.25
 30
0.1302083283662796
 70
   192
  0
VERTEX
  5
81
330
5A
100
AcDbEntity
  8
0
 62
    28
100
AcDbVertex
100
AcDbPolyFaceMeshVertex
 10
0.1989814788103104
 20
0.25
 30
0.1377452313899994
 70
   192
  0
VERTEX
  5
82
330
5A
100
AcDbEntity
  8
0
 62
    28
100
AcDbVertex
100
AcDbPolyFaceMeshVertex
 10
0.1979166716337204
 20
0.25
 30
0.1458333283662796
 70
   192
  0
VERTEX
  5
83
330
5A
100
AcDbEntity
  8
0
 62
    28
100
AcDbVertex
100
AcDbPolyFaceMeshVertex
 10
0.1989814788103104
 20
0.25
 30
0.1539214253425598
 70
   192
  0
VERTEX
  5
84
330
5A
100
AcDbEntity
  8
0
 62
    28
100
AcDbVertex
100
AcDbPolyFaceMeshVertex
 10
0.2021033763885498
 20
0.25
 30
0.1614583283662796
 70
   192
  0
VERTEX
  5
85
330
5A
100
AcDbEntity
  8
0
 62
    28
100
AcDbVertex
100
AcDbPolyFaceMeshVertex
 10
0.2070695757865906
 20
0.25
 30
0.1679304242134094
 70
   192
  0
VERTEX
  5
86
330
5A
100
AcDbEntity
  8
0
 62
    28
100
AcDbVertex
100
AcDbPolyFaceMeshVertex
 10
0.2135416716337204
 20
0.25
 30
0.1728966236114502
 70
   192
  0
VERTEX
  5
87
330
5A
100
AcDbEntity
  8
0
 62
    28
100
AcDbVertex
100
AcDbPolyFaceMeshVertex
 10
0.3333333432674408
 20
0.25
 30
0.25
 70
   192
  0
VERTEX
  5
88
330
5A
100
AcDbEntity
  8
0
 62
    28
100
AcDbVertex
100
AcDbPolyFaceMeshVertex
 10
-0.3333333432674408
 20
0.25
 30
0.25
 70
   192
  0
VERTEX
  5
89
330
5A
100
AcDbEntity
  8
0
 62
    28
100
AcDbVertex
100
AcDbPolyFaceMeshVertex
 10
-0.3333333432674408
 20
0.25
 30
-0.25
 70
   192
  0
VERTEX
  5
8A
330
5A
100
AcDbEntity
  8
0
 62
    28
100
AcDbVertex
100
AcDbPolyFaceMeshVertex
 10
0.2135416716337204
 20
0.25
 30
0.1187700405716896
 70
   192
  0
VERTEX
  5
8B
330
5A
100
AcDbEntity
  8
0
 62
    28
100
AcDbVertex
100
AcDbPolyFaceMeshVertex
 10
0.2210785746574402
 20
0.25
 30
0.1760185211896896
 70
   192
  0
VERTEX
  5
8C
330
5A
100
AcDbEntity
  8
0
 62
    28
100
AcDbVertex
100
AcDbPolyFaceMeshVertex
 10
0.2291666716337204
 20
0.25
 30
0.1770833283662796
 70
   192
  0
VERTEX
  5
8D
330
5A
100
AcDbEntity
  8
0
 62
    28
100
AcDbVertex
100
AcDbPolyFaceMeshVertex
 10
0.2372547686100006
 20
0.25
 30
0.1760185211896896
 70
   192
  0
VERTEX
  5
8E
330
5A
100
AcDbEntity
  8
0
 62
    28
100
AcDbVertex
100
AcDbPolyFaceMeshVertex
 10
0.2447916716337204
 20
0.25
 30
0.1728966236114502
 70
   192
  0
VERTEX
  5
8F
330
5A
100
AcDbEntity
  8
0
 62
    28
100
AcDbVertex
100
AcDbPolyFaceMeshVertex
 10
0.2512637674808502
 20
0.25
 30
0.1679304242134094
 70
   192
  0
VERTEX
  5
90
330
5A
100
AcDbEntity
  8
0
 62
    28
100
AcDbVertex
100
AcDbPolyFaceMeshVertex
 10
0.256229966878891
 20
0.25
 30
0.1614583283662796
 70
   192
  0
VERTEX
  5
91
330
5A
100
AcDbEntity
  8
0
 62
    28
100
AcDbVertex
100
AcDbPolyFaceMeshVertex
 10
0.2593518495559692
 20
0.25
 30
0.1539214253425598
 70
   192
  0
VERTEX
  5
92
330
5A
100
AcDbEntity
  8
0
 62
    28
100
AcDbVertex
100
AcDbPolyFaceMeshVertex
 10
0.2604166567325592
 20
0.25
 30
0.1458333283662796
 70
   192
  0
VERTEX
  5
93
330
5A
100
AcDbEntity
  8
0
 62
    28
100
AcDbVertex
100
AcDbPolyFaceMeshVertex
 10
0.2593518495559692
 20
0.25
 30
0.1377452313899994
 70
   192
  0
VERTEX
  5
94
330
5A
100
AcDbEntity
  8
0
 62
    28
100
AcDbVertex
100
AcDbPolyFaceMeshVertex
 10
0.3333333432674408
 20
0.25
 30
-0.25
 70
   192
  0
VERTEX
  5
95
330
5A
100
AcDbEntity
  8
0
 62
    28
100
AcDbVertex
100
AcDbPolyFaceMeshVertex
 10
0.2210785746574402
 20
0.25
 30
0.1156481504440308
 70
   192
  0
VERTEX
  5
96
330
5A
100
AcDbEntity
  8
0
 62
    28
100
AcDbVertex
100
AcDbPolyFaceMeshVertex
 10
0.2291666716337204
 20
0.25
 30
0.1145833358168602
 70
   192
  0
VERTEX
  5
97
330
5A
100
AcDbEntity
  8
0
 62
    28
100
AcDbVertex
100
AcDbPolyFaceMeshVertex
 10
0.2372547686100006
 20
0.25
 30
0.1156481504440308
 70
   192
  0
VERTEX
  5
98
330
5A
100
AcDbEntity
  8
0
 62
    28
100
AcDbVertex
100
AcDbPolyFaceMeshVertex
 10
0.2447916716337204
 20
0.25
 30
0.1187700405716896
 70
   192
  0
VERTEX
  5
99
330
5A
100
AcDbEntity
  8
0
 62
    28
100
AcDbVertex
100
AcDbPolyFaceMeshVertex
 10
0.2512637674808502
 20
0.25
 30
0.123736247420311
 70
   192
  0
VERTEX
  5
9A
330
5A
100
AcDbEntity
  8
0
 62
    28
100
AcDbVertex
100
AcDbPolyFaceMeshVertex
 10
0.256229966878891
 20
0.25
 30
0.1302083283662796
 70
   192
  0
VERTEX
  5
9B
330
5A
100
AcDbEntity
  8
0
 62
    28
100
AcDbVertex
100
AcDbPolyFaceMeshVertex
 10
0.3333333432674408
 20
-0.0000000000000098
 30
0.25
 70
   192
  0
VERTEX
  5
9C
330
5A
100
AcDbEntity
  8
0
 62
    28
100
AcDbVertex
100
AcDbPolyFaceMeshVertex
 10
0.3333333432674408
 20
0.25
 30
0.25
 70
   192
  0
VERTEX
  5
9D
330
5A
100
AcDbEntity
  8
0
 62
    28
100
AcDbVertex
100
AcDbPolyFaceMeshVertex
 10
-0.3333333432674408
 20
0.25
 30
0.25
 70
   192
  0
VERTEX
  5
9E
330
5A
100
AcDbEntity
  8
0
 62
    28
100
AcDbVertex
100
AcDbPolyFaceMeshVertex
 10
-0.3333333432674408
 20
-0.0000000000000029
 30
0.25
 70
   192
  0
VERTEX
  5
9F
330
5A
100
AcDbEntity
  8
0
 62
    28
100
AcDbVertex
100
AcDbPolyFaceMeshVertex
 10
0.3333333432674408
 20
-0.0000000000000098
 30
-0.2916666567325592
 70
   192
  0
VERTEX
  5
A0
330
5A
100
AcDbEntity
  8
0
 62
    28
100
AcDbVertex
100
AcDbPolyFaceMeshVertex
 10
0.3333333432674408
 20
-0.0000000000000098
 30
0.25
 70
   192
  0
VERTEX
  5
A1
330
5A
100
AcDbEntity
  8
0
 62
    28
100
AcDbVertex
100
AcDbPolyFaceMeshVertex
 10
-0.3333333432674408
 20
-0.0000000000000029
 30
0.25
 70
   192
  0
VERTEX
  5
A2
330
5A
100
AcDbEntity
  8
0
 62
    28
100
AcDbVertex
100
AcDbPolyFaceMeshVertex
 10
-0.3333333432674408
 20
-0.0000000000000029
 30
-0.2916666567325592
 70
   192
  0
VERTEX
  5
A3
330
5A
100
AcDbEntity
  8
0
 62
    28
100
AcDbVertex
100
AcDbPolyFaceMeshVertex
 10
0.3333333432674408
 20
0.0104166669771075
 30
-0.2916666567325592
 70
   192
  0
VERTEX
  5
A4
330
5A
100
AcDbEntity
  8
0
 62
    28
100
AcDbVertex
100
AcDbPolyFaceMeshVertex
 10
0.3333333432674408
 20
-0.0000000000000098
 30
-0.2916666567325592
 70
   192
  0
VERTEX
  5
A5
330
5A
100
AcDbEntity
  8
0
 62
    28
100
AcDbVertex
100
AcDbPolyFaceMeshVertex
 10
-0.3333333432674408
 20
-0.0000000000000029
 30
-0.2916666567325592
 70
   192
  0
VERTEX
  5
A6
330
5A
100
AcDbEntity
  8
0
 62
    28
100
AcDbVertex
100
AcDbPolyFaceMeshVertex
 10
-0.3333333432674408
 20
0.0104166669771075
 30
-0.2916666567325592
 70
   192
  0
VERTEX
  5
A7
330
5A
100
AcDbEntity
  8
0
 62
    28
100
AcDbVertex
100
AcDbPolyFaceMeshVertex
 10
0.3333333432674408
 20
0.0104166669771075
 30
-0.25
 70
   192
  0
VERTEX
  5
A8
330
5A
100
AcDbEntity
  8
0
 62
    28
100
AcDbVertex
100
AcDbPolyFaceMeshVertex
 10
0.3333333432674408
 20
0.0104166669771075
 30
-0.2916666567325592
 70
   192
  0
VERTEX
  5
A9
330
5A
100
AcDbEntity
  8
0
 62
    28
100
AcDbVertex
100
AcDbPolyFaceMeshVertex
 10
-0.3333333432674408
 20
0.0104166669771075
 30
-0.2916666567325592
 70
   192
  0
VERTEX
  5
AA
330
5A
100
AcDbEntity
  8
0
 62
    28
100
AcDbVertex
100
AcDbPolyFaceMeshVertex
 10
-0.3333333432674408
 20
0.0104166669771075
 30
-0.25
 70
   192
  0
VERTEX
  5
AB
330
5A
100
AcDbEntity
  8
0
 62
    28
100
AcDbVertex
100
AcDbPolyFaceMeshVertex
 10
-0.2577471733093262
 20
0.031959880143404
 30
-0.25
 70
   192
  0
VERTEX
  5
AC
330
5A
100
AcDbEntity
  8
0
 62
    28
100
AcDbVertex
100
AcDbPolyFaceMeshVertex
 10
-0.2527225613594055
 20
0.0340411365032196
 30
-0.25
 70
   192
  0
VERTEX
  5
AD
330
5A
100
AcDbEntity
  8
0
 62
    28
100
AcDbVertex
100
AcDbPolyFaceMeshVertex
 10
-0.2484078407287598
 20
0.037351943552494
 30
-0.25
 70
   192
  0
VERTEX
  5
AE
330
5A
100
AcDbEntity
  8
0
 62
    28
100
AcDbVertex
100
AcDbPolyFaceMeshVertex
 10
-0.2450970262289047
 20
0.0416666679084301
 30
-0.25
 70
   192
  0
VERTEX
  5
AF
330
5A
100
AcDbEntity
  8
0
 62
    28
100
AcDbVertex
100
AcDbPolyFaceMeshVertex
 10
-0.24301578104496
 20
0.0466912686824799
 30
-0.25
 70
   192
  0
VERTEX
  5
B0
330
5A
100
AcDbEntity
  8
0
 62
    28
100
AcDbVertex
100
AcDbPolyFaceMeshVertex
 10
-0.2423058897256851
 20
0.0520833320915699
 30
-0.25
 70
   192
  0
VERTEX
  5
B1
330
5A
100
AcDbEntity
  8
0
 62
    28
100
AcDbVertex
100
AcDbPolyFaceMeshVertex
 10
-0.24301578104496
 20
0.0574753955006599
 30
-0.25
 70
   192
  0
VERTEX
  5
B2
330
5A
100
AcDbEntity
  8
0
 62
    28
100
AcDbVertex
100
AcDbPolyFaceMeshVertex
 10
-0.2450970262289047
 20
0.0625
 30
-0.25
 70
   192
  0
VERTEX
  5
B3
330
5A
100
AcDbEntity
  8
0
 62
    28
100
AcDbVertex
100
AcDbPolyFaceMeshVertex
 10
-0.2484078407287598
 20
0.0668147280812263
 30
-0.25
 70
   192
  0
VERTEX
  5
B4
330
5A
100
AcDbEntity
  8
0
 62
    28
100
AcDbVertex
100
AcDbPolyFaceMeshVertex
 10
-0.2527225613594055
 20
0.0701255276799202
 30
-0.25
 70
   192
  0
VERTEX
  5
B5
330
5A
100
AcDbEntity
  8
0
 62
    28
100
AcDbVertex
100
AcDbPolyFaceMeshVertex
 10
-0.2577471733093262
 20
0.0722067877650261
 30
-0.25
 70
   192
  0
VERTEX
  5
B6
330
5A
100
AcDbEntity
  8
0
 62
    28
100
AcDbVertex
100
AcDbPolyFaceMeshVertex
 10
-0.2631392180919647
 20
0.0729166641831398
 30
-0.25
 70
   192
  0
VERTEX
  5
B7
330
5A
100
AcDbEntity
  8
0
 62
    28
100
AcDbVertex
100
AcDbPolyFaceMeshVertex
 10
-0.2685312926769257
 20
0.0722067877650261
 30
-0.25
 70
   192
  0
VERTEX
  5
B8
330
5A
100
AcDbEntity
  8
0
 62
    28
100
AcDbVertex
100
AcDbPolyFaceMeshVertex
 10
-0.2735559046268463
 20
0.0701255276799202
 30
-0.25
 70
   192
  0
VERTEX
  5
B9
330
5A
100
AcDbEntity
  8
0
 62
    28
100
AcDbVertex
100
AcDbPolyFaceMeshVertex
 10
-0.2778706252574921
 20
0.0668147280812263
 30
-0.25
 70
   192
  0
VERTEX
  5
BA
330
5A
100
AcDbEntity
  8
0
 62
    28
100
AcDbVertex
100
AcDbPolyFaceMeshVertex
 10
-0.2811814248561859
 20
0.0625
 30
-0.25
 70
   192
  0
VERTEX
  5
BB
330
5A
100
AcDbEntity
  8
0
 62
    28
100
AcDbVertex
100
AcDbPolyFaceMeshVertex
 10
-0.2832626700401306
 20
0.0574753955006599
 30
-0.25
 70
   192
  0
VERTEX
  5
BC
330
5A
100
AcDbEntity
  8
0
 62
    28
100
AcDbVertex
100
AcDbPolyFaceMeshVertex
 10
-0.2839725613594055
 20
0.0520833320915699
 30
-0.25
 70
   192
  0
VERTEX
  5
BD
330
5A
100
AcDbEntity
  8
0
 62
    28
100
AcDbVertex
100
AcDbPolyFaceMeshVertex
 10
-0.2832626700401306
 20
0.0466912686824799
 30
-0.25
 70
   192
  0
VERTEX
  5
BE
330
5A
100
AcDbEntity
  8
0
 62
    28
100
AcDbVertex
100
AcDbPolyFaceMeshVertex
 10
-0.2811814248561859
 20
0.0416666679084301
 30
-0.25
 70
   192
  0
VERTEX
  5
BF
330
5A
100
AcDbEntity
  8
0
 62
    28
100
AcDbVertex
100
AcDbPolyFaceMeshVertex
 10
-0.2778706252574921
 20
0.037351943552494
 30
-0.25
 70
   192
  0
VERTEX
  5
C0
330
5A
100
AcDbEntity
  8
0
 62
    28
100
AcDbVertex
100
AcDbPolyFaceMeshVertex
 10
-0.2735559046268463
 20
0.0340411365032196
 30
-0.25
 70
   192
  0
VERTEX
  5
C1
330
5A
100
AcDbEntity
  8
0
 62
    28
100
AcDbVertex
100
AcDbPolyFaceMeshVertex
 10
-0.2685312926769257
 20
0.031959880143404
 30
-0.25
 70
   192
  0
VERTEX
  5
C2
330
5A
100
AcDbEntity
  8
0
 62
    28
100
AcDbVertex
100
AcDbPolyFaceMeshVertex
 10
-0.2631392180919647
 20
0.03125
 30
-0.25
 70
   192
  0
VERTEX
  5
C3
330
5A
100
AcDbEntity
  8
0
 62
    28
100
AcDbVertex
100
AcDbPolyFaceMeshVertex
 10
-0.2060312926769257
 20
0.031959880143404
 30
-0.25
 70
   192
  0
VERTEX
  5
C4
330
5A
100
AcDbEntity
  8
0
 62
    28
100
AcDbVertex
100
AcDbPolyFaceMeshVertex
 10
-0.2110558897256851
 20
0.0340411365032196
 30
-0.25
 70
   192
  0
VERTEX
  5
C5
330
5A
100
AcDbEntity
  8
0
 62
    28
100
AcDbVertex
100
AcDbPolyFaceMeshVertex
 10
-0.2153706252574921
 20
0.037351943552494
 30
-0.25
 70
   192
  0
VERTEX
  5
C6
330
5A
100
AcDbEntity
  8
0
 62
    28
100
AcDbVertex
100
AcDbPolyFaceMeshVertex
 10
-0.2186814248561859
 20
0.0416666679084301
 30
-0.25
 70
   192
  0
VERTEX
  5
C7
330
5A
100
AcDbEntity
  8
0
 62
    28
100
AcDbVertex
100
AcDbPolyFaceMeshVertex
 10
-0.2207626849412918
 20
0.0466912686824799
 30
-0.25
 70
   192
  0
VERTEX
  5
C8
330
5A
100
AcDbEntity
  8
0
 62
    28
100
AcDbVertex
100
AcDbPolyFaceMeshVertex
 10
-0.2214725613594055
 20
0.0520833320915699
 30
-0.25
 70
   192
  0
VERTEX
  5
C9
330
5A
100
AcDbEntity
  8
0
 62
    28
100
AcDbVertex
100
AcDbPolyFaceMeshVertex
 10
-0.2207626849412918
 20
0.0574753955006599
 30
-0.25
 70
   192
  0
VERTEX
  5
CA
330
5A
100
AcDbEntity
  8
0
 62
    28
100
AcDbVertex
100
AcDbPolyFaceMeshVertex
 10
-0.2186814248561859
 20
0.0625
 30
-0.25
 70
   192
  0
VERTEX
  5
CB
330
5A
100
AcDbEntity
  8
0
 62
    28
100
AcDbVertex
100
AcDbPolyFaceMeshVertex
 10
-0.2153706252574921
 20
0.0668147280812263
 30
-0.25
 70
   192
  0
VERTEX
  5
CC
330
5A
100
AcDbEntity
  8
0
 62
    28
100
AcDbVertex
100
AcDbPolyFaceMeshVertex
 10
-0.2110558897256851
 20
0.0701255276799202
 30
-0.25
 70
   192
  0
VERTEX
  5
CD
330
5A
100
AcDbEntity
  8
0
 62
    28
100
AcDbVertex
100
AcDbPolyFaceMeshVertex
 10
-0.2060312926769257
 20
0.0722067877650261
 30
-0.25
 70
   192
  0
VERTEX
  5
CE
330
5A
100
AcDbEntity
  8
0
 62
    28
100
AcDbVertex
100
AcDbPolyFaceMeshVertex
 10
-0.3333333432674408
 20
0.25
 30
-0.25
 70
   192
  0
VERTEX
  5
CF
330
5A
100
AcDbEntity
  8
0
 62
    28
100
AcDbVertex
100
AcDbPolyFaceMeshVertex
 10
-0.3333333432674408
 20
0.0104166669771075
 30
-0.25
 70
   192
  0
VERTEX
  5
D0
330
5A
100
AcDbEntity
  8
0
 62
    28
100
AcDbVertex
100
AcDbPolyFaceMeshVertex
 10
-0.2006392329931259
 20
0.03125
 30
-0.25
 70
   192
  0
VERTEX
  5
D1
330
5A
100
AcDbEntity
  8
0
 62
    28
100
AcDbVertex
100
AcDbPolyFaceMeshVertex
 10
-0.2006392329931259
 20
0.0729166641831398
 30
-0.25
 70
   192
  0
VERTEX
  5
D2
330
5A
100
AcDbEntity
  8
0
 62
    28
100
AcDbVertex
100
AcDbPolyFaceMeshVertex
 10
-0.195247158408165
 20
0.0722067877650261
 30
-0.25
 70
   192
  0
VERTEX
  5
D3
330
5A
100
AcDbEntity
  8
0
 62
    28
100
AcDbVertex
100
AcDbPolyFaceMeshVertex
 10
-0.1902225613594055
 20
0.0701255276799202
 30
-0.25
 70
   192
  0
VERTEX
  5
D4
330
5A
100
AcDbEntity
  8
0
 62
    28
100
AcDbVertex
100
AcDbPolyFaceMeshVertex
 10
0.3333333432674408
 20
0.25
 30
-0.25
 70
   192
  0
VERTEX
  5
D5
330
5A
100
AcDbEntity
  8
0
 62
    28
100
AcDbVertex
100
AcDbPolyFaceMeshVertex
 10
0.3333333432674408
 20
0.0104166669771075
 30
-0.25
 70
   192
  0
VERTEX
  5
D6
330
5A
100
AcDbEntity
  8
0
 62
    28
100
AcDbVertex
100
AcDbPolyFaceMeshVertex
 10
-0.195247158408165
 20
0.031959880143404
 30
-0.25
 70
   192
  0
VERTEX
  5
D7
330
5A
100
AcDbEntity
  8
0
 62
    28
100
AcDbVertex
100
AcDbPolyFaceMeshVertex
 10
-0.1902225613594055
 20
0.0340411365032196
 30
-0.25
 70
   192
  0
VERTEX
  5
D8
330
5A
100
AcDbEntity
  8
0
 62
    28
100
AcDbVertex
100
AcDbPolyFaceMeshVertex
 10
-0.1859078407287598
 20
0.037351943552494
 30
-0.25
 70
   192
  0
VERTEX
  5
D9
330
5A
100
AcDbEntity
  8
0
 62
    28
100
AcDbVertex
100
AcDbPolyFaceMeshVertex
 10
-0.1825970262289047
 20
0.0416666679084301
 30
-0.25
 70
   192
  0
VERTEX
  5
DA
330
5A
100
AcDbEntity
  8
0
 62
    28
100
AcDbVertex
100
AcDbPolyFaceMeshVertex
 10
-0.18051578104496
 20
0.0466912686824799
 30
-0.25
 70
   192
  0
VERTEX
  5
DB
330
5A
100
AcDbEntity
  8
0
 62
    28
100
AcDbVertex
100
AcDbPolyFaceMeshVertex
 10
-0.1798058897256851
 20
0.0520833320915699
 30
-0.25
 70
   192
  0
VERTEX
  5
DC
330
5A
100
AcDbEntity
  8
0
 62
    28
100
AcDbVertex
100
AcDbPolyFaceMeshVertex
 10
-0.18051578104496
 20
0.0574753955006599
 30
-0.25
 70
   192
  0
VERTEX
  5
DD
330
5A
100
AcDbEntity
  8
0
 62
    28
100
AcDbVertex
100
AcDbPolyFaceMeshVertex
 10
-0.1825970262289047
 20
0.0625
 30
-0.25
 70
   192
  0
VERTEX
  5
DE
330
5A
100
AcDbEntity
  8
0
 62
    28
100
AcDbVertex
100
AcDbPolyFaceMeshVertex
 10
-0.1859078407287598
 20
0.0668147280812263
 30
-0.25
 70
   192
  0
VERTEX
  5
DF
330
5A
100
AcDbEntity
  8
0
 62
    28
100
AcDbVertex
100
AcDbPolyFaceMeshVertex
 10
0.1979166716337204
 20
0.3333333432674408
 30
0.1458333283662796
 70
   192
  0
VERTEX
  5
E0
330
5A
100
AcDbEntity
  8
0
 62
    28
100
AcDbVertex
100
AcDbPolyFaceMeshVertex
 10
0.1989814788103104
 20
0.3333333432674408
 30
0.1539214253425598
 70
   192
  0
VERTEX
  5
E1
330
5A
100
AcDbEntity
  8
0
 62
    28
100
AcDbVertex
100
AcDbPolyFaceMeshVertex
 10
0.2021033763885498
 20
0.3333333432674408
 30
0.1614583283662796
 70
   192
  0
VERTEX
  5
E2
330
5A
100
AcDbEntity
  8
0
 62
    28
100
AcDbVertex
100
AcDbPolyFaceMeshVertex
 10
0.2070695757865906
 20
0.3333333432674408
 30
0.1679304242134094
 70
   192
  0
VERTEX
  5
E3
330
5A
100
AcDbEntity
  8
0
 62
    28
100
AcDbVertex
100
AcDbPolyFaceMeshVertex
 10
0.2135416716337204
 20
0.3333333432674408
 30
0.1728966236114502
 70
   192
  0
VERTEX
  5
E4
330
5A
100
AcDbEntity
  8
0
 62
    28
100
AcDbVertex
100
AcDbPolyFaceMeshVertex
 10
0.2210785746574402
 20
0.3333333432674408
 30
0.1760185211896896
 70
   192
  0
VERTEX
  5
E5
330
5A
100
AcDbEntity
  8
0
 62
    28
100
AcDbVertex
100
AcDbPolyFaceMeshVertex
 10
0.2291666716337204
 20
0.3333333432674408
 30
0.1770833283662796
 70
   192
  0
VERTEX
  5
E6
330
5A
100
AcDbEntity
  8
0
 62
    28
100
AcDbVertex
100
AcDbPolyFaceMeshVertex
 10
0.2372547686100006
 20
0.3333333432674408
 30
0.1760185211896896
 70
   192
  0
VERTEX
  5
E7
330
5A
100
AcDbEntity
  8
0
 62
    28
100
AcDbVertex
100
AcDbPolyFaceMeshVertex
 10
0.2447916716337204
 20
0.3333333432674408
 30
0.1728966236114502
 70
   192
  0
VERTEX
  5
E8
330
5A
100
AcDbEntity
  8
0
 62
    28
100
AcDbVertex
100
AcDbPolyFaceMeshVertex
 10
0.2512637674808502
 20
0.3333333432674408
 30
0.1679304242134094
 70
   192
  0
VERTEX
  5
E9
330
5A
100
AcDbEntity
  8
0
 62
    28
100
AcDbVertex
100
AcDbPolyFaceMeshVertex
 10
0.256229966878891
 20
0.3333333432674408
 30
0.1614583283662796
 70
   192
  0
VERTEX
  5
EA
330
5A
100
AcDbEntity
  8
0
 62
    28
100
AcDbVertex
100
AcDbPolyFaceMeshVertex
 10
0.2593518495559692
 20
0.3333333432674408
 30
0.1539214253425598
 70
   192
  0
VERTEX
  5
EB
330
5A
100
AcDbEntity
  8
0
 62
    28
100
AcDbVertex
100
AcDbPolyFaceMeshVertex
 10
0.2604166567325592
 20
0.3333333432674408
 30
0.1458333283662796
 70
   192
  0
VERTEX
  5
EC
330
5A
100
AcDbEntity
  8
0
 62
    28
100
AcDbVertex
100
AcDbPolyFaceMeshVertex
 10
0.2593518495559692
 20
0.3333333432674408
 30
0.1377452313899994
 70
   192
  0
VERTEX
  5
ED
330
5A
100
AcDbEntity
  8
0
 62
    28
100
AcDbVertex
100
AcDbPolyFaceMeshVertex
 10
0.256229966878891
 20
0.3333333432674408
 30
0.1302083283662796
 70
   192
  0
VERTEX
  5
EE
330
5A
100
AcDbEntity
  8
0
 62
    28
100
AcDbVertex
100
AcDbPolyFaceMeshVertex
 10
0.2512637674808502
 20
0.3333333432674408
 30
0.123736247420311
 70
   192
  0
VERTEX
  5
EF
330
5A
100
AcDbEntity
  8
0
 62
    28
100
AcDbVertex
100
AcDbPolyFaceMeshVertex
 10
0.2447916716337204
 20
0.3333333432674408
 30
0.1187700405716896
 70
   192
  0
VERTEX
  5
F0
330
5A
100
AcDbEntity
  8
0
 62
    28
100
AcDbVertex
100
AcDbPolyFaceMeshVertex
 10
0.2372547686100006
 20
0.3333333432674408
 30
0.1156481504440308
 70
   192
  0
VERTEX
  5
F1
330
5A
100
AcDbEntity
  8
0
 62
    28
100
AcDbVertex
100
AcDbPolyFaceMeshVertex
 10
0.2291666716337204
 20
0.3333333432674408
 30
0.1145833358168602
 70
   192
  0
VERTEX
  5
F2
330
5A
100
AcDbEntity
  8
0
 62
    28
100
AcDbVertex
100
AcDbPolyFaceMeshVertex
 10
0.2210785746574402
 20
0.3333333432674408
 30
0.1156481504440308
 70
   192
  0
VERTEX
  5
F3
330
5A
100
AcDbEntity
  8
0
 62
    28
100
AcDbVertex
100
AcDbPolyFaceMeshVertex
 10
0.2135416716337204
 20
0.3333333432674408
 30
0.1187700405716896
 70
   192
  0
VERTEX
  5
F4
330
5A
100
AcDbEntity
  8
0
 62
    28
100
AcDbVertex
100
AcDbPolyFaceMeshVertex
 10
0.2070695757865906
 20
0.3333333432674408
 30
0.123736247420311
 70
   192
  0
VERTEX
  5
F5
330
5A
100
AcDbEntity
  8
0
 62
    28
100
AcDbVertex
100
AcDbPolyFaceMeshVertex
 10
0.2021033763885498
 20
0.3333333432674408
 30
0.1302083283662796
 70
   192
  0
VERTEX
  5
F6
330
5A
100
AcDbEntity
  8
0
 62
    28
100
AcDbVertex
100
AcDbPolyFaceMeshVertex
 10
0.1989814788103104
 20
0.3333333432674408
 30
0.1377452313899994
 70
   192
  0
VERTEX
  5
F7
330
5A
100
AcDbEntity
  8
0
 62
    28
100
AcDbVertex
100
AcDbPolyFaceMeshVertex
 10
0.2291666716337204
 20
0.25
 30
0.1145833358168602
 70
   192
  0
VERTEX
  5
F8
330
5A
100
AcDbEntity
  8
0
 62
    28
100
AcDbVertex
100
AcDbPolyFaceMeshVertex
 10
0.2210785746574402
 20
0.25
 30
0.1156481504440308
 70
   192
  0
VERTEX
  5
F9
330
5A
100
AcDbEntity
  8
0
 62
    28
100
AcDbVertex
100
AcDbPolyFaceMeshVertex
 10
0.2135416716337204
 20
0.25
 30
0.1187700405716896
 70
   192
  0
VERTEX
  5
FA
330
5A
100
AcDbEntity
  8
0
 62
    28
100
AcDbVertex
100
AcDbPolyFaceMeshVertex
 10
0.2070695757865906
 20
0.25
 30
0.123736247420311
 70
   192
  0
VERTEX
  5
FB
330
5A
100
AcDbEntity
  8
0
 62
    28
100
AcDbVertex
100
AcDbPolyFaceMeshVertex
 10
0.2021033763885498
 20
0.25
 30
0.1302083283662796
 70
   192
  0
VERTEX
  5
FC
330
5A
100
AcDbEntity
  8
0
 62
    28
100
AcDbVertex
100
AcDbPolyFaceMeshVertex
 10
0.1989814788103104
 20
0.25
 30
0.1377452313899994
 70
   192
  0
VERTEX
  5
FD
330
5A
100
AcDbEntity
  8
0
 62
    28
100
AcDbVertex
100
AcDbPolyFaceMeshVertex
 10
0.1979166716337204
 20
0.25
 30
0.1458333283662796
 70
   192
  0
VERTEX
  5
FE
330
5A
100
AcDbEntity
  8
0
 62
    28
100
AcDbVertex
100
AcDbPolyFaceMeshVertex
 10
0.1989814788103104
 20
0.25
 30
0.1539214253425598
 70
   192
  0
VERTEX
  5
FF
330
5A
100
AcDbEntity
  8
0
 62
    28
100
AcDbVertex
100
AcDbPolyFaceMeshVertex
 10
0.2021033763885498
 20
0.25
 30
0.1614583283662796
 70
   192
  0
VERTEX
  5
100
330
5A
100
AcDbEntity
  8
0
 62
    28
100
AcDbVertex
100
AcDbPolyFaceMeshVertex
 10
0.2070695757865906
 20
0.25
 30
0.1679304242134094
 70
   192
  0
VERTEX
  5
101
330
5A
100
AcDbEntity
  8
0
 62
    28
100
AcDbVertex
100
AcDbPolyFaceMeshVertex
 10
0.2135416716337204
 20
0.25
 30
0.1728966236114502
 70
   192
  0
VERTEX
  5
102
330
5A
100
AcDbEntity
  8
0
 62
    28
100
AcDbVertex
100
AcDbPolyFaceMeshVertex
 10
0.2210785746574402
 20
0.25
 30
0.1760185211896896
 70
   192
  0
VERTEX
  5
103
330
5A
100
AcDbEntity
  8
0
 62
    28
100
AcDbVertex
100
AcDbPolyFaceMeshVertex
 10
0.2291666716337204
 20
0.25
 30
0.1770833283662796
 70
   192
  0
VERTEX
  5
104
330
5A
100
AcDbEntity
  8
0
 62
    28
100
AcDbVertex
100
AcDbPolyFaceMeshVertex
 10
0.2291666716337204
 20
0.3333333432674408
 30
0.1770833283662796
 70
   192
  0
VERTEX
  5
105
330
5A
100
AcDbEntity
  8
0
 62
    28
100
AcDbVertex
100
AcDbPolyFaceMeshVertex
 10
0.2210785746574402
 20
0.3333333432674408
 30
0.1760185211896896
 70
   192
  0
VERTEX
  5
106
330
5A
100
AcDbEntity
  8
0
 62
    28
100
AcDbVertex
100
AcDbPolyFaceMeshVertex
 10
0.2135416716337204
 20
0.3333333432674408
 30
0.1728966236114502
 70
   192
  0
VERTEX
  5
107
330
5A
100
AcDbEntity
  8
0
 62
    28
100
AcDbVertex
100
AcDbPolyFaceMeshVertex
 10
0.2070695757865906
 20
0.3333333432674408
 30
0.1679304242134094
 70
   192
  0
VERTEX
  5
108
330
5A
100
AcDbEntity
  8
0
 62
    28
100
AcDbVertex
100
AcDbPolyFaceMeshVertex
 10
0.2021033763885498
 20
0.3333333432674408
 30
0.1614583283662796
 70
   192
  0
VERTEX
  5
109
330
5A
100
AcDbEntity
  8
0
 62
    28
100
AcDbVertex
100
AcDbPolyFaceMeshVertex
 10
0.1989814788103104
 20
0.3333333432674408
 30
0.1539214253425598
 70
   192
  0
VERTEX
  5
10A
330
5A
100
AcDbEntity
  8
0
 62
    28
100
AcDbVertex
100
AcDbPolyFaceMeshVertex
 10
0.1979166716337204
 20
0.3333333432674408
 30
0.1458333283662796
 70
   192
  0
VERTEX
  5
10B
330
5A
100
AcDbEntity
  8
0
 62
    28
100
AcDbVertex
100
AcDbPolyFaceMeshVertex
 10
0.1989814788103104
 20
0.3333333432674408
 30
0.1377452313899994
 70
   192
  0
VERTEX
  5
10C
330
5A
100
AcDbEntity
  8
0
 62
    28
100
AcDbVertex
100
AcDbPolyFaceMeshVertex
 10
0.2021033763885498
 20
0.3333333432674408
 30
0.1302083283662796
 70
   192
  0
VERTEX
  5
10D
330
5A
100
AcDbEntity
  8
0
 62
    28
100
AcDbVertex
100
AcDbPolyFaceMeshVertex
 10
0.2070695757865906
 20
0.3333333432674408
 30
0.123736247420311
 70
   192
  0
VERTEX
  5
10E
330
5A
100
AcDbEntity
  8
0
 62
    28
100
AcDbVertex
100
AcDbPolyFaceMeshVertex
 10
0.2135416716337204
 20
0.3333333432674408
 30
0.1187700405716896
 70
   192
  0
VERTEX
  5
10F
330
5A
100
AcDbEntity
  8
0
 62
    28
100
AcDbVertex
100
AcDbPolyFaceMeshVertex
 10
0.2210785746574402
 20
0.3333333432674408
 30
0.1156481504440308
 70
   192
  0
VERTEX
  5
110
330
5A
100
AcDbEntity
  8
0
 62
    28
100
AcDbVertex
100
AcDbPolyFaceMeshVertex
 10
0.2291666716337204
 20
0.3333333432674408
 30
0.1145833358168602
 70
   192
  0
VERTEX
  5
111
330
5A
100
AcDbEntity
  8
0
 62
    28
100
AcDbVertex
100
AcDbPolyFaceMeshVertex
 10
0.2372547686100006
 20
0.3333333432674408
 30
0.1156481504440308
 70
   192
  0
VERTEX
  5
112
330
5A
100
AcDbEntity
  8
0
 62
    28
100
AcDbVertex
100
AcDbPolyFaceMeshVertex
 10
0.2447916716337204
 20
0.3333333432674408
 30
0.1187700405716896
 70
   192
  0
VERTEX
  5
113
330
5A
100
AcDbEntity
  8
0
 62
    28
100
AcDbVertex
100
AcDbPolyFaceMeshVertex
 10
0.2512637674808502
 20
0.3333333432674408
 30
0.123736247420311
 70
   192
  0
VERTEX
  5
114
330
5A
100
AcDbEntity
  8
0
 62
    28
100
AcDbVertex
100
AcDbPolyFaceMeshVertex
 10
0.256229966878891
 20
0.3333333432674408
 30
0.1302083283662796
 70
   192
  0
VERTEX
  5
115
330
5A
100
AcDbEntity
  8
0
 62
    28
100
AcDbVertex
100
AcDbPolyFaceMeshVertex
 10
0.2593518495559692
 20
0.3333333432674408
 30
0.1377452313899994
 70
   192
  0
VERTEX
  5
116
330
5A
100
AcDbEntity
  8
0
 62
    28
100
AcDbVertex
100
AcDbPolyFaceMeshVertex
 10
0.2604166567325592
 20
0.3333333432674408
 30
0.1458333283662796
 70
   192
  0
VERTEX
  5
117
330
5A
100
AcDbEntity
  8
0
 62
    28
100
AcDbVertex
100
AcDbPolyFaceMeshVertex
 10
0.2593518495559692
 20
0.3333333432674408
 30
0.1539214253425598
 70
   192
  0
VERTEX
  5
118
330
5A
100
AcDbEntity
  8
0
 62
    28
100
AcDbVertex
100
AcDbPolyFaceMeshVertex
 10
0.256229966878891
 20
0.3333333432674408
 30
0.1614583283662796
 70
   192
  0
VERTEX
  5
119
330
5A
100
AcDbEntity
  8
0
 62
    28
100
AcDbVertex
100
AcDbPolyFaceMeshVertex
 10
0.2512637674808502
 20
0.3333333432674408
 30
0.1679304242134094
 70
   192
  0
VERTEX
  5
11A
330
5A
100
AcDbEntity
  8
0
 62
    28
100
AcDbVertex
100
AcDbPolyFaceMeshVertex
 10
0.2447916716337204
 20
0.3333333432674408
 30
0.1728966236114502
 70
   192
  0
VERTEX
  5
11B
330
5A
100
AcDbEntity
  8
0
 62
    28
100
AcDbVertex
100
AcDbPolyFaceMeshVertex
 10
0.2372547686100006
 20
0.3333333432674408
 30
0.1760185211896896
 70
   192
  0
VERTEX
  5
11C
330
5A
100
AcDbEntity
  8
0
 62
    28
100
AcDbVertex
100
AcDbPolyFaceMeshVertex
 10
0.2291666716337204
 20
0.3333333432674408
 30
0.1770833283662796
 70
   192
  0
VERTEX
  5
11D
330
5A
100
AcDbEntity
  8
0
 62
    28
100
AcDbVertex
100
AcDbPolyFaceMeshVertex
 10
0.2291666716337204
 20
0.25
 30
0.1770833283662796
 70
   192
  0
VERTEX
  5
11E
330
5A
100
AcDbEntity
  8
0
 62
    28
100
AcDbVertex
100
AcDbPolyFaceMeshVertex
 10
0.2372547686100006
 20
0.25
 30
0.1760185211896896
 70
   192
  0
VERTEX
  5
11F
330
5A
100
AcDbEntity
  8
0
 62
    28
100
AcDbVertex
100
AcDbPolyFaceMeshVertex
 10
0.2447916716337204
 20
0.25
 30
0.1728966236114502
 70
   192
  0
VERTEX
  5
120
330
5A
100
AcDbEntity
  8
0
 62
    28
100
AcDbVertex
100
AcDbPolyFaceMeshVertex
 10
0.2512637674808502
 20
0.25
 30
0.1679304242134094
 70
   192
  0
VERTEX
  5
121
330
5A
100
AcDbEntity
  8
0
 62
    28
100
AcDbVertex
100
AcDbPolyFaceMeshVertex
 10
0.256229966878891
 20
0.25
 30
0.1614583283662796
 70
   192
  0
VERTEX
  5
122
330
5A
100
AcDbEntity
  8
0
 62
    28
100
AcDbVertex
100
AcDbPolyFaceMeshVertex
 10
0.2593518495559692
 20
0.25
 30
0.1539214253425598
 70
   192
  0
VERTEX
  5
123
330
5A
100
AcDbEntity
  8
0
 62
    28
100
AcDbVertex
100
AcDbPolyFaceMeshVertex
 10
0.2604166567325592
 20
0.25
 30
0.1458333283662796
 70
   192
  0
VERTEX
  5
124
330
5A
100
AcDbEntity
  8
0
 62
    28
100
AcDbVertex
100
AcDbPolyFaceMeshVertex
 10
0.2593518495559692
 20
0.25
 30
0.1377452313899994
 70
   192
  0
VERTEX
  5
125
330
5A
100
AcDbEntity
  8
0
 62
    28
100
AcDbVertex
100
AcDbPolyFaceMeshVertex
 10
0.256229966878891
 20
0.25
 30
0.1302083283662796
 70
   192
  0
VERTEX
  5
126
330
5A
100
AcDbEntity
  8
0
 62
    28
100
AcDbVertex
100
AcDbPolyFaceMeshVertex
 10
0.2512637674808502
 20
0.25
 30
0.123736247420311
 70
   192
  0
VERTEX
  5
127
330
5A
100
AcDbEntity
  8
0
 62
    28
100
AcDbVertex
100
AcDbPolyFaceMeshVertex
 10
0.2447916716337204
 20
0.25
 30
0.1187700405716896
 70
   192
  0
VERTEX
  5
128
330
5A
100
AcDbEntity
  8
0
 62
    28
100
AcDbVertex
100
AcDbPolyFaceMeshVertex
 10
0.2372547686100006
 20
0.25
 30
0.1156481504440308
 70
   192
  0
VERTEX
  5
129
330
5A
100
AcDbEntity
  8
0
 62
    28
100
AcDbVertex
100
AcDbPolyFaceMeshVertex
 10
-0.2604166567325592
 20
0.3333333432674408
 30
0.1458333283662796
 70
   192
  0
VERTEX
  5
12A
330
5A
100
AcDbEntity
  8
0
 62
    28
100
AcDbVertex
100
AcDbPolyFaceMeshVertex
 10
-0.2593518495559692
 20
0.3333333432674408
 30
0.1539214253425598
 70
   192
  0
VERTEX
  5
12B
330
5A
100
AcDbEntity
  8
0
 62
    28
100
AcDbVertex
100
AcDbPolyFaceMeshVertex
 10
-0.256229966878891
 20
0.3333333432674408
 30
0.1614583283662796
 70
   192
  0
VERTEX
  5
12C
330
5A
100
AcDbEntity
  8
0
 62
    28
100
AcDbVertex
100
AcDbPolyFaceMeshVertex
 10
-0.2512637674808502
 20
0.3333333432674408
 30
0.1679304242134094
 70
   192
  0
VERTEX
  5
12D
330
5A
100
AcDbEntity
  8
0
 62
    28
100
AcDbVertex
100
AcDbPolyFaceMeshVertex
 10
-0.2447916716337204
 20
0.3333333432674408
 30
0.1728966236114502
 70
   192
  0
VERTEX
  5
12E
330
5A
100
AcDbEntity
  8
0
 62
    28
100
AcDbVertex
100
AcDbPolyFaceMeshVertex
 10
-0.2372547686100006
 20
0.3333333432674408
 30
0.1760185211896896
 70
   192
  0
VERTEX
  5
12F
330
5A
100
AcDbEntity
  8
0
 62
    28
100
AcDbVertex
100
AcDbPolyFaceMeshVertex
 10
-0.2291666716337204
 20
0.3333333432674408
 30
0.1770833283662796
 70
   192
  0
VERTEX
  5
130
330
5A
100
AcDbEntity
  8
0
 62
    28
100
AcDbVertex
100
AcDbPolyFaceMeshVertex
 10
-0.2210785746574402
 20
0.3333333432674408
 30
0.1760185211896896
 70
   192
  0
VERTEX
  5
131
330
5A
100
AcDbEntity
  8
0
 62
    28
100
AcDbVertex
100
AcDbPolyFaceMeshVertex
 10
-0.2135416716337204
 20
0.3333333432674408
 30
0.1728966236114502
 70
   192
  0
VERTEX
  5
132
330
5A
100
AcDbEntity
  8
0
 62
    28
100
AcDbVertex
100
AcDbPolyFaceMeshVertex
 10
-0.2070695757865906
 20
0.3333333432674408
 30
0.1679304242134094
 70
   192
  0
VERTEX
  5
133
330
5A
100
AcDbEntity
  8
0
 62
    28
100
AcDbVertex
100
AcDbPolyFaceMeshVertex
 10
-0.2021033763885498
 20
0.3333333432674408
 30
0.1614583283662796
 70
   192
  0
VERTEX
  5
134
330
5A
100
AcDbEntity
  8
0
 62
    28
100
AcDbVertex
100
AcDbPolyFaceMeshVertex
 10
-0.1989814788103104
 20
0.3333333432674408
 30
0.1539214253425598
 70
   192
  0
VERTEX
  5
135
330
5A
100
AcDbEntity
  8
0
 62
    28
100
AcDbVertex
100
AcDbPolyFaceMeshVertex
 10
-0.1979166716337204
 20
0.3333333432674408
 30
0.1458333283662796
 70
   192
  0
VERTEX
  5
136
330
5A
100
AcDbEntity
  8
0
 62
    28
100
AcDbVertex
100
AcDbPolyFaceMeshVertex
 10
-0.1989814788103104
 20
0.3333333432674408
 30
0.1377452313899994
 70
   192
  0
VERTEX
  5
137
330
5A
100
AcDbEntity
  8
0
 62
    28
100
AcDbVertex
100
AcDbPolyFaceMeshVertex
 10
-0.2021033763885498
 20
0.3333333432674408
 30
0.1302083283662796
 70
   192
  0
VERTEX
  5
138
330
5A
100
AcDbEntity
  8
0
 62
    28
100
AcDbVertex
100
AcDbPolyFaceMeshVertex
 10
-0.2070695757865906
 20
0.3333333432674408
 30
0.123736247420311
 70
   192
  0
VERTEX
  5
139
330
5A
100
AcDbEntity
  8
0
 62
    28
100
AcDbVertex
100
AcDbPolyFaceMeshVertex
 10
-0.2135416716337204
 20
0.3333333432674408
 30
0.1187700405716896
 70
   192
  0
VERTEX
  5
13A
330
5A
100
AcDbEntity
  8
0
 62
    28
100
AcDbVertex
100
AcDbPolyFaceMeshVertex
 10
-0.2210785746574402
 20
0.3333333432674408
 30
0.1156481504440308
 70
   192
  0
VERTEX
  5
13B
330
5A
100
AcDbEntity
  8
0
 62
    28
100
AcDbVertex
100
AcDbPolyFaceMeshVertex
 10
-0.2291666716337204
 20
0.3333333432674408
 30
0.1145833358168602
 70
   192
  0
VERTEX
  5
13C
330
5A
100
AcDbEntity
  8
0
 62
    28
100
AcDbVertex
100
AcDbPolyFaceMeshVertex
 10
-0.2372547686100006
 20
0.3333333432674408
 30
0.1156481504440308
 70
   192
  0
VERTEX
  5
13D
330
5A
100
AcDbEntity
  8
0
 62
    28
100
AcDbVertex
100
AcDbPolyFaceMeshVertex
 10
-0.2447916716337204
 20
0.3333333432674408
 30
0.1187700405716896
 70
   192
  0
VERTEX
  5
13E
330
5A
100
AcDbEntity
  8
0
 62
    28
100
AcDbVertex
100
AcDbPolyFaceMeshVertex
 10
-0.2512637674808502
 20
0.3333333432674408
 30
0.123736247420311
 70
   192
  0
VERTEX
  5
13F
330
5A
100
AcDbEntity
  8
0
 62
    28
100
AcDbVertex
100
AcDbPolyFaceMeshVertex
 10
-0.256229966878891
 20
0.3333333432674408
 30
0.1302083283662796
 70
   192
  0
VERTEX
  5
140
330
5A
100
AcDbEntity
  8
0
 62
    28
100
AcDbVertex
100
AcDbPolyFaceMeshVertex
 10
-0.2593518495559692
 20
0.3333333432674408
 30
0.1377452313899994
 70
   192
  0
VERTEX
  5
141
330
5A
100
AcDbEntity
  8
0
 62
    28
100
AcDbVertex
100
AcDbPolyFaceMeshVertex
 10
-0.2291666716337204
 20
0.25
 30
0.1145833358168602
 70
   192
  0
VERTEX
  5
142
330
5A
100
AcDbEntity
  8
0
 62
    28
100
AcDbVertex
100
AcDbPolyFaceMeshVertex
 10
-0.2372547686100006
 20
0.25
 30
0.1156481504440308
 70
   192
  0
VERTEX
  5
143
330
5A
100
AcDbEntity
  8
0
 62
    28
100
AcDbVertex
100
AcDbPolyFaceMeshVertex
 10
-0.2447916716337204
 20
0.25
 30
0.1187700405716896
 70
   192
  0
VERTEX
  5
144
330
5A
100
AcDbEntity
  8
0
 62
    28
100
AcDbVertex
100
AcDbPolyFaceMeshVertex
 10
-0.2512637674808502
 20
0.25
 30
0.123736247420311
 70
   192
  0
VERTEX
  5
145
330
5A
100
AcDbEntity
  8
0
 62
    28
100
AcDbVertex
100
AcDbPolyFaceMeshVertex
 10
-0.256229966878891
 20
0.25
 30
0.1302083283662796
 70
   192
  0
VERTEX
  5
146
330
5A
100
AcDbEntity
  8
0
 62
    28
100
AcDbVertex
100
AcDbPolyFaceMeshVertex
 10
-0.2593518495559692
 20
0.25
 30
0.1377452313899994
 70
   192
  0
VERTEX
  5
147
330
5A
100
AcDbEntity
  8
0
 62
    28
100
AcDbVertex
100
AcDbPolyFaceMeshVertex
 10
-0.2604166567325592
 20
0.25
 30
0.1458333283662796
 70
   192
  0
VERTEX
  5
148
330
5A
100
AcDbEntity
  8
0
 62
    28
100
AcDbVertex
100
AcDbPolyFaceMeshVertex
 10
-0.2593518495559692
 20
0.25
 30
0.1539214253425598
 70
   192
  0
VERTEX
  5
149
330
5A
100
AcDbEntity
  8
0
 62
    28
100
AcDbVertex
100
AcDbPolyFaceMeshVertex
 10
-0.256229966878891
 20
0.25
 30
0.1614583283662796
 70
   192
  0
VERTEX
  5
14A
330
5A
100
AcDbEntity
  8
0
 62
    28
100
AcDbVertex
100
AcDbPolyFaceMeshVertex
 10
-0.2512637674808502
 20
0.25
 30
0.1679304242134094
 70
   192
  0
VERTEX
  5
14B
330
5A
100
AcDbEntity
  8
0
 62
    28
100
AcDbVertex
100
AcDbPolyFaceMeshVertex
 10
-0.2447916716337204
 20
0.25
 30
0.1728966236114502
 70
   192
  0
VERTEX
  5
14C
330
5A
100
AcDbEntity
  8
0
 62
    28
100
AcDbVertex
100
AcDbPolyFaceMeshVertex
 10
-0.2372547686100006
 20
0.25
 30
0.1760185211896896
 70
   192
  0
VERTEX
  5
14D
330
5A
100
AcDbEntity
  8
0
 62
    28
100
AcDbVertex
100
AcDbPolyFaceMeshVertex
 10
-0.2291666716337204
 20
0.25
 30
0.1770833283662796
 70
   192
  0
VERTEX
  5
14E
330
5A
100
AcDbEntity
  8
0
 62
    28
100
AcDbVertex
100
AcDbPolyFaceMeshVertex
 10
-0.2291666716337204
 20
0.3333333432674408
 30
0.1770833283662796
 70
   192
  0
VERTEX
  5
14F
330
5A
100
AcDbEntity
  8
0
 62
    28
100
AcDbVertex
100
AcDbPolyFaceMeshVertex
 10
-0.2372547686100006
 20
0.3333333432674408
 30
0.1760185211896896
 70
   192
  0
VERTEX
  5
150
330
5A
100
AcDbEntity
  8
0
 62
    28
100
AcDbVertex
100
AcDbPolyFaceMeshVertex
 10
-0.2447916716337204
 20
0.3333333432674408
 30
0.1728966236114502
 70
   192
  0
VERTEX
  5
151
330
5A
100
AcDbEntity
  8
0
 62
    28
100
AcDbVertex
100
AcDbPolyFaceMeshVertex
 10
-0.2512637674808502
 20
0.3333333432674408
 30
0.1679304242134094
 70
   192
  0
VERTEX
  5
152
330
5A
100
AcDbEntity
  8
0
 62
    28
100
AcDbVertex
100
AcDbPolyFaceMeshVertex
 10
-0.256229966878891
 20
0.3333333432674408
 30
0.1614583283662796
 70
   192
  0
VERTEX
  5
153
330
5A
100
AcDbEntity
  8
0
 62
    28
100
AcDbVertex
100
AcDbPolyFaceMeshVertex
 10
-0.2593518495559692
 20
0.3333333432674408
 30
0.1539214253425598
 70
   192
  0
VERTEX
  5
154
330
5A
100
AcDbEntity
  8
0
 62
    28
100
AcDbVertex
100
AcDbPolyFaceMeshVertex
 10
-0.2604166567325592
 20
0.3333333432674408
 30
0.1458333283662796
 70
   192
  0
VERTEX
  5
155
330
5A
100
AcDbEntity
  8
0
 62
    28
100
AcDbVertex
100
AcDbPolyFaceMeshVertex
 10
-0.2593518495559692
 20
0.3333333432674408
 30
0.1377452313899994
 70
   192
  0
VERTEX
  5
156
330
5A
100
AcDbEntity
  8
0
 62
    28
100
AcDbVertex
100
AcDbPolyFaceMeshVertex
 10
-0.256229966878891
 20
0.3333333432674408
 30
0.1302083283662796
 70
   192
  0
VERTEX
  5
157
330
5A
100
AcDbEntity
  8
0
 62
    28
100
AcDbVertex
100
AcDbPolyFaceMeshVertex
 10
-0.2512637674808502
 20
0.3333333432674408
 30
0.123736247420311
 70
   192
  0
VERTEX
  5
158
330
5A
100
AcDbEntity
  8
0
 62
    28
100
AcDbVertex
100
AcDbPolyFaceMeshVertex
 10
-0.2447916716337204
 20
0.3333333432674408
 30
0.1187700405716896
 70
   192
  0
VERTEX
  5
159
330
5A
100
AcDbEntity
  8
0
 62
    28
100
AcDbVertex
100
AcDbPolyFaceMeshVertex
 10
-0.2372547686100006
 20
0.3333333432674408
 30
0.1156481504440308
 70
   192
  0
VERTEX
  5
15A
330
5A
100
AcDbEntity
  8
0
 62
    28
100
AcDbVertex
100
AcDbPolyFaceMeshVertex
 10
-0.2291666716337204
 20
0.3333333432674408
 30
0.1145833358168602
 70
   192
  0
VERTEX
  5
15B
330
5A
100
AcDbEntity
  8
0
 62
    28
100
AcDbVertex
100
AcDbPolyFaceMeshVertex
 10
-0.2291666716337204
 20
0.25
 30
0.1770833283662796
 70
   192
  0
VERTEX
  5
15C
330
5A
100
AcDbEntity
  8
0
 62
    28
100
AcDbVertex
100
AcDbPolyFaceMeshVertex
 10
-0.2210785746574402
 20
0.25
 30
0.1760185211896896
 70
   192
  0
VERTEX
  5
15D
330
5A
100
AcDbEntity
  8
0
 62
    28
100
AcDbVertex
100
AcDbPolyFaceMeshVertex
 10
-0.2135416716337204
 20
0.25
 30
0.1728966236114502
 70
   192
  0
VERTEX
  5
15E
330
5A
100
AcDbEntity
  8
0
 62
    28
100
AcDbVertex
100
AcDbPolyFaceMeshVertex
 10
-0.2070695757865906
 20
0.25
 30
0.1679304242134094
 70
   192
  0
VERTEX
  5
15F
330
5A
100
AcDbEntity
  8
0
 62
    28
100
AcDbVertex
100
AcDbPolyFaceMeshVertex
 10
-0.2021033763885498
 20
0.25
 30
0.1614583283662796
 70
   192
  0
VERTEX
  5
160
330
5A
100
AcDbEntity
  8
0
 62
    28
100
AcDbVertex
100
AcDbPolyFaceMeshVertex
 10
-0.1989814788103104
 20
0.25
 30
0.1539214253425598
 70
   192
  0
VERTEX
  5
161
330
5A
100
AcDbEntity
  8
0
 62
    28
100
AcDbVertex
100
AcDbPolyFaceMeshVertex
 10
-0.1979166716337204
 20
0.25
 30
0.1458333283662796
 70
   192
  0
VERTEX
  5
162
330
5A
100
AcDbEntity
  8
0
 62
    28
100
AcDbVertex
100
AcDbPolyFaceMeshVertex
 10
-0.1989814788103104
 20
0.25
 30
0.1377452313899994
 70
   192
  0
VERTEX
  5
163
330
5A
100
AcDbEntity
  8
0
 62
    28
100
AcDbVertex
100
AcDbPolyFaceMeshVertex
 10
-0.2021033763885498
 20
0.25
 30
0.1302083283662796
 70
   192
  0
VERTEX
  5
164
330
5A
100
AcDbEntity
  8
0
 62
    28
100
AcDbVertex
100
AcDbPolyFaceMeshVertex
 10
-0.2070695757865906
 20
0.25
 30
0.123736247420311
 70
   192
  0
VERTEX
  5
165
330
5A
100
AcDbEntity
  8
0
 62
    28
100
AcDbVertex
100
AcDbPolyFaceMeshVertex
 10
-0.2135416716337204
 20
0.25
 30
0.1187700405716896
 70
   192
  0
VERTEX
  5
166
330
5A
100
AcDbEntity
  8
0
 62
    28
100
AcDbVertex
100
AcDbPolyFaceMeshVertex
 10
-0.2210785746574402
 20
0.25
 30
0.1156481504440308
 70
   192
  0
VERTEX
  5
167
330
5A
100
AcDbEntity
  8
0
 62
    28
100
AcDbVertex
100
AcDbPolyFaceMeshVertex
 10
-0.2291666716337204
 20
0.25
 30
0.1145833358168602
 70
   192
  0
VERTEX
  5
168
330
5A
100
AcDbEntity
  8
0
 62
    28
100
AcDbVertex
100
AcDbPolyFaceMeshVertex
 10
-0.2291666716337204
 20
0.3333333432674408
 30
0.1145833358168602
 70
   192
  0
VERTEX
  5
169
330
5A
100
AcDbEntity
  8
0
 62
    28
100
AcDbVertex
100
AcDbPolyFaceMeshVertex
 10
-0.2210785746574402
 20
0.3333333432674408
 30
0.1156481504440308
 70
   192
  0
VERTEX
  5
16A
330
5A
100
AcDbEntity
  8
0
 62
    28
100
AcDbVertex
100
AcDbPolyFaceMeshVertex
 10
-0.2135416716337204
 20
0.3333333432674408
 30
0.1187700405716896
 70
   192
  0
VERTEX
  5
16B
330
5A
100
AcDbEntity
  8
0
 62
    28
100
AcDbVertex
100
AcDbPolyFaceMeshVertex
 10
-0.2070695757865906
 20
0.3333333432674408
 30
0.123736247420311
 70
   192
  0
VERTEX
  5
16C
330
5A
100
AcDbEntity
  8
0
 62
    28
100
AcDbVertex
100
AcDbPolyFaceMeshVertex
 10
-0.2021033763885498
 20
0.3333333432674408
 30
0.1302083283662796
 70
   192
  0
VERTEX
  5
16D
330
5A
100
AcDbEntity
  8
0
 62
    28
100
AcDbVertex
100
AcDbPolyFaceMeshVertex
 10
-0.1989814788103104
 20
0.3333333432674408
 30
0.1377452313899994
 70
   192
  0
VERTEX
  5
16E
330
5A
100
AcDbEntity
  8
0
 62
    28
100
AcDbVertex
100
AcDbPolyFaceMeshVertex
 10
-0.1979166716337204
 20
0.3333333432674408
 30
0.1458333283662796
 70
   192
  0
VERTEX
  5
16F
330
5A
100
AcDbEntity
  8
0
 62
    28
100
AcDbVertex
100
AcDbPolyFaceMeshVertex
 10
-0.1989814788103104
 20
0.3333333432674408
 30
0.1539214253425598
 70
   192
  0
VERTEX
  5
170
330
5A
100
AcDbEntity
  8
0
 62
    28
100
AcDbVertex
100
AcDbPolyFaceMeshVertex
 10
-0.2021033763885498
 20
0.3333333432674408
 30
0.1614583283662796
 70
   192
  0
VERTEX
  5
171
330
5A
100
AcDbEntity
  8
0
 62
    28
100
AcDbVertex
100
AcDbPolyFaceMeshVertex
 10
-0.2070695757865906
 20
0.3333333432674408
 30
0.1679304242134094
 70
   192
  0
VERTEX
  5
172
330
5A
100
AcDbEntity
  8
0
 62
    28
100
AcDbVertex
100
AcDbPolyFaceMeshVertex
 10
-0.2135416716337204
 20
0.3333333432674408
 30
0.1728966236114502
 70
   192
  0
VERTEX
  5
173
330
5A
100
AcDbEntity
  8
0
 62
    28
100
AcDbVertex
100
AcDbPolyFaceMeshVertex
 10
-0.2210785746574402
 20
0.3333333432674408
 30
0.1760185211896896
 70
   192
  0
VERTEX
  5
174
330
5A
100
AcDbEntity
  8
0
 62
    28
100
AcDbVertex
100
AcDbPolyFaceMeshVertex
 10
-0.2291666716337204
 20
0.3333333432674408
 30
0.1770833283662796
 70
   192
  0
VERTEX
  5
175
330
5A
100
AcDbEntity
  8
0
 62
    28
100
AcDbVertex
100
AcDbPolyFaceMeshVertex
 10
-0.2839725613594055
 20
0.0520833320915699
 30
-0.2916666567325592
 70
   192
  0
VERTEX
  5
176
330
5A
100
AcDbEntity
  8
0
 62
    28
100
AcDbVertex
100
AcDbPolyFaceMeshVertex
 10
-0.2832626700401306
 20
0.0574753955006599
 30
-0.2916666567325592
 70
   192
  0
VERTEX
  5
177
330
5A
100
AcDbEntity
  8
0
 62
    28
100
AcDbVertex
100
AcDbPolyFaceMeshVertex
 10
-0.2811814248561859
 20
0.0625
 30
-0.2916666567325592
 70
   192
  0
VERTEX
  5
178
330
5A
100
AcDbEntity
  8
0
 62
    28
100
AcDbVertex
100
AcDbPolyFaceMeshVertex
 10
-0.2778706252574921
 20
0.0668147280812263
 30
-0.2916666567325592
 70
   192
  0
VERTEX
  5
179
330
5A
100
AcDbEntity
  8
0
 62
    28
100
AcDbVertex
100
AcDbPolyFaceMeshVertex
 10
-0.2735559046268463
 20
0.0701255276799202
 30
-0.2916666567325592
 70
   192
  0
VERTEX
  5
17A
330
5A
100
AcDbEntity
  8
0
 62
    28
100
AcDbVertex
100
AcDbPolyFaceMeshVertex
 10
-0.2685312926769257
 20
0.0722067877650261
 30
-0.2916666567325592
 70
   192
  0
VERTEX
  5
17B
330
5A
100
AcDbEntity
  8
0
 62
    28
100
AcDbVertex
100
AcDbPolyFaceMeshVertex
 10
-0.2631392180919647
 20
0.0729166641831398
 30
-0.2916666567325592
 70
   192
  0
VERTEX
  5
17C
330
5A
100
AcDbEntity
  8
0
 62
    28
100
AcDbVertex
100
AcDbPolyFaceMeshVertex
 10
-0.2577471733093262
 20
0.0722067877650261
 30
-0.2916666567325592
 70
   192
  0
VERTEX
  5
17D
330
5A
100
AcDbEntity
  8
0
 62
    28
100
AcDbVertex
100
AcDbPolyFaceMeshVertex
 10
-0.2527225613594055
 20
0.0701255276799202
 30
-0.2916666567325592
 70
   192
  0
VERTEX
  5
17E
330
5A
100
AcDbEntity
  8
0
 62
    28
100
AcDbVertex
100
AcDbPolyFaceMeshVertex
 10
-0.2484078407287598
 20
0.0668147280812263
 30
-0.2916666567325592
 70
   192
  0
VERTEX
  5
17F
330
5A
100
AcDbEntity
  8
0
 62
    28
100
AcDbVertex
100
AcDbPolyFaceMeshVertex
 10
-0.2450970262289047
 20
0.0625
 30
-0.2916666567325592
 70
   192
  0
VERTEX
  5
180
330
5A
100
AcDbEntity
  8
0
 62
    28
100
AcDbVertex
100
AcDbPolyFaceMeshVertex
 10
-0.24301578104496
 20
0.0574753955006599
 30
-0.2916666567325592
 70
   192
  0
VERTEX
  5
181
330
5A
100
AcDbEntity
  8
0
 62
    28
100
AcDbVertex
100
AcDbPolyFaceMeshVertex
 10
-0.2423058897256851
 20
0.0520833320915699
 30
-0.2916666567325592
 70
   192
  0
VERTEX
  5
182
330
5A
100
AcDbEntity
  8
0
 62
    28
100
AcDbVertex
100
AcDbPolyFaceMeshVertex
 10
-0.24301578104496
 20
0.0466912686824799
 30
-0.2916666567325592
 70
   192
  0
VERTEX
  5
183
330
5A
100
AcDbEntity
  8
0
 62
    28
100
AcDbVertex
100
AcDbPolyFaceMeshVertex
 10
-0.2450970262289047
 20
0.0416666679084301
 30
-0.2916666567325592
 70
   192
  0
VERTEX
  5
184
330
5A
100
AcDbEntity
  8
0
 62
    28
100
AcDbVertex
100
AcDbPolyFaceMeshVertex
 10
-0.2484078407287598
 20
0.037351943552494
 30
-0.2916666567325592
 70
   192
  0
VERTEX
  5
185
330
5A
100
AcDbEntity
  8
0
 62
    28
100
AcDbVertex
100
AcDbPolyFaceMeshVertex
 10
-0.2527225613594055
 20
0.0340411365032196
 30
-0.2916666567325592
 70
   192
  0
VERTEX
  5
186
330
5A
100
AcDbEntity
  8
0
 62
    28
100
AcDbVertex
100
AcDbPolyFaceMeshVertex
 10
-0.2577471733093262
 20
0.031959880143404
 30
-0.2916666567325592
 70
   192
  0
VERTEX
  5
187
330
5A
100
AcDbEntity
  8
0
 62
    28
100
AcDbVertex
100
AcDbPolyFaceMeshVertex
 10
-0.2631392180919647
 20
0.03125
 30
-0.2916666567325592
 70
   192
  0
VERTEX
  5
188
330
5A
100
AcDbEntity
  8
0
 62
    28
100
AcDbVertex
100
AcDbPolyFaceMeshVertex
 10
-0.2685312926769257
 20
0.031959880143404
 30
-0.2916666567325592
 70
   192
  0
VERTEX
  5
189
330
5A
100
AcDbEntity
  8
0
 62
    28
100
AcDbVertex
100
AcDbPolyFaceMeshVertex
 10
-0.2735559046268463
 20
0.0340411365032196
 30
-0.2916666567325592
 70
   192
  0
VERTEX
  5
18A
330
5A
100
AcDbEntity
  8
0
 62
    28
100
AcDbVertex
100
AcDbPolyFaceMeshVertex
 10
-0.2778706252574921
 20
0.037351943552494
 30
-0.2916666567325592
 70
   192
  0
VERTEX
  5
18B
330
5A
100
AcDbEntity
  8
0
 62
    28
100
AcDbVertex
100
AcDbPolyFaceMeshVertex
 10
-0.2811814248561859
 20
0.0416666679084301
 30
-0.2916666567325592
 70
   192
  0
VERTEX
  5
18C
330
5A
100
AcDbEntity
  8
0
 62
    28
100
AcDbVertex
100
AcDbPolyFaceMeshVertex
 10
-0.2832626700401306
 20
0.0466912686824799
 30
-0.2916666567325592
 70
   192
  0
VERTEX
  5
18D
330
5A
100
AcDbEntity
  8
0
 62
    28
100
AcDbVertex
100
AcDbPolyFaceMeshVertex
 10
-0.2631392180919647
 20
0.03125
 30
-0.25
 70
   192
  0
VERTEX
  5
18E
330
5A
100
AcDbEntity
  8
0
 62
    28
100
AcDbVertex
100
AcDbPolyFaceMeshVertex
 10
-0.2685312926769257
 20
0.031959880143404
 30
-0.25
 70
   192
  0
VERTEX
  5
18F
330
5A
100
AcDbEntity
  8
0
 62
    28
100
AcDbVertex
100
AcDbPolyFaceMeshVertex
 10
-0.2735559046268463
 20
0.0340411365032196
 30
-0.25
 70
   192
  0
VERTEX
  5
190
330
5A
100
AcDbEntity
  8
0
 62
    28
100
AcDbVertex
100
AcDbPolyFaceMeshVertex
 10
-0.2778706252574921
 20
0.037351943552494
 30
-0.25
 70
   192
  0
VERTEX
  5
191
330
5A
100
AcDbEntity
  8
0
 62
    28
100
AcDbVertex
100
AcDbPolyFaceMeshVertex
 10
-0.2811814248561859
 20
0.0416666679084301
 30
-0.25
 70
   192
  0
VERTEX
  5
192
330
5A
100
AcDbEntity
  8
0
 62
    28
100
AcDbVertex
100
AcDbPolyFaceMeshVertex
 10
-0.2832626700401306
 20
0.0466912686824799
 30
-0.25
 70
   192
  0
VERTEX
  5
193
330
5A
100
AcDbEntity
  8
0
 62
    28
100
AcDbVertex
100
AcDbPolyFaceMeshVertex
 10
-0.2839725613594055
 20
0.0520833320915699
 30
-0.25
 70
   192
  0
VERTEX
  5
194
330
5A
100
AcDbEntity
  8
0
 62
    28
100
AcDbVertex
100
AcDbPolyFaceMeshVertex
 10
-0.2832626700401306
 20
0.0574753955006599
 30
-0.25
 70
   192
  0
VERTEX
  5
195
330
5A
100
AcDbEntity
  8
0
 62
    28
100
AcDbVertex
100
AcDbPolyFaceMeshVertex
 10
-0.2811814248561859
 20
0.0625
 30
-0.25
 70
   192
  0
VERTEX
  5
196
330
5A
100
AcDbEntity
  8
0
 62
    28
100
AcDbVertex
100
AcDbPolyFaceMeshVertex
 10
-0.2778706252574921
 20
0.0668147280812263
 30
-0.25
 70
   192
  0
VERTEX
  5
197
330
5A
100
AcDbEntity
  8
0
 62
    28
100
AcDbVertex
100
AcDbPolyFaceMeshVertex
 10
-0.2735559046268463
 20
0.0701255276799202
 30
-0.25
 70
   192
  0
VERTEX
  5
198
330
5A
100
AcDbEntity
  8
0
 62
    28
100
AcDbVertex
100
AcDbPolyFaceMeshVertex
 10
-0.2685312926769257
 20
0.0722067877650261
 30
-0.25
 70
   192
  0
VERTEX
  5
199
330
5A
100
AcDbEntity
  8
0
 62
    28
100
AcDbVertex
100
AcDbPolyFaceMeshVertex
 10
-0.2631392180919647
 20
0.0729166641831398
 30
-0.25
 70
   192
  0
VERTEX
  5
19A
330
5A
100
AcDbEntity
  8
0
 62
    28
100
AcDbVertex
100
AcDbPolyFaceMeshVertex
 10
-0.2631392180919647
 20
0.0729166641831398
 30
-0.2916666567325592
 70
   192
  0
VERTEX
  5
19B
330
5A
100
AcDbEntity
  8
0
 62
    28
100
AcDbVertex
100
AcDbPolyFaceMeshVertex
 10
-0.2685312926769257
 20
0.0722067877650261
 30
-0.2916666567325592
 70
   192
  0
VERTEX
  5
19C
330
5A
100
AcDbEntity
  8
0
 62
    28
100
AcDbVertex
100
AcDbPolyFaceMeshVertex
 10
-0.2735559046268463
 20
0.0701255276799202
 30
-0.2916666567325592
 70
   192
  0
VERTEX
  5
19D
330
5A
100
AcDbEntity
  8
0
 62
    28
100
AcDbVertex
100
AcDbPolyFaceMeshVertex
 10
-0.2778706252574921
 20
0.0668147280812263
 30
-0.2916666567325592
 70
   192
  0
VERTEX
  5
19E
330
5A
100
AcDbEntity
  8
0
 62
    28
100
AcDbVertex
100
AcDbPolyFaceMeshVertex
 10
-0.2811814248561859
 20
0.0625
 30
-0.2916666567325592
 70
   192
  0
VERTEX
  5
19F
330
5A
100
AcDbEntity
  8
0
 62
    28
100
AcDbVertex
100
AcDbPolyFaceMeshVertex
 10
-0.2832626700401306
 20
0.0574753955006599
 30
-0.2916666567325592
 70
   192
  0
VERTEX
  5
1A0
330
5A
100
AcDbEntity
  8
0
 62
    28
100
AcDbVertex
100
AcDbPolyFaceMeshVertex
 10
-0.2839725613594055
 20
0.0520833320915699
 30
-0.2916666567325592
 70
   192
  0
VERTEX
  5
1A1
330
5A
100
AcDbEntity
  8
0
 62
    28
100
AcDbVertex
100
AcDbPolyFaceMeshVertex
 10
-0.2832626700401306
 20
0.0466912686824799
 30
-0.2916666567325592
 70
   192
  0
VERTEX
  5
1A2
330
5A
100
AcDbEntity
  8
0
 62
    28
100
AcDbVertex
100
AcDbPolyFaceMeshVertex
 10
-0.2811814248561859
 20
0.0416666679084301
 30
-0.2916666567325592
 70
   192
  0
VERTEX
  5
1A3
330
5A
100
AcDbEntity
  8
0
 62
    28
100
AcDbVertex
100
AcDbPolyFaceMeshVertex
 10
-0.2778706252574921
 20
0.037351943552494
 30
-0.2916666567325592
 70
   192
  0
VERTEX
  5
1A4
330
5A
100
AcDbEntity
  8
0
 62
    28
100
AcDbVertex
100
AcDbPolyFaceMeshVertex
 10
-0.2735559046268463
 20
0.0340411365032196
 30
-0.2916666567325592
 70
   192
  0
VERTEX
  5
1A5
330
5A
100
AcDbEntity
  8
0
 62
    28
100
AcDbVertex
100
AcDbPolyFaceMeshVertex
 10
-0.2685312926769257
 20
0.031959880143404
 30
-0.2916666567325592
 70
   192
  0
VERTEX
  5
1A6
330
5A
100
AcDbEntity
  8
0
 62
    28
100
AcDbVertex
100
AcDbPolyFaceMeshVertex
 10
-0.2631392180919647
 20
0.03125
 30
-0.2916666567325592
 70
   192
  0
VERTEX
  5
1A7
330
5A
100
AcDbEntity
  8
0
 62
    28
100
AcDbVertex
100
AcDbPolyFaceMeshVertex
 10
-0.2577471733093262
 20
0.031959880143404
 30
-0.2916666567325592
 70
   192
  0
VERTEX
  5
1A8
330
5A
100
AcDbEntity
  8
0
 62
    28
100
AcDbVertex
100
AcDbPolyFaceMeshVertex
 10
-0.2527225613594055
 20
0.0340411365032196
 30
-0.2916666567325592
 70
   192
  0
VERTEX
  5
1A9
330
5A
100
AcDbEntity
  8
0
 62
    28
100
AcDbVertex
100
AcDbPolyFaceMeshVertex
 10
-0.2484078407287598
 20
0.037351943552494
 30
-0.2916666567325592
 70
   192
  0
VERTEX
  5
1AA
330
5A
100
AcDbEntity
  8
0
 62
    28
100
AcDbVertex
100
AcDbPolyFaceMeshVertex
 10
-0.2450970262289047
 20
0.0416666679084301
 30
-0.2916666567325592
 70
   192
  0
VERTEX
  5
1AB
330
5A
100
AcDbEntity
  8
0
 62
    28
100
AcDbVertex
100
AcDbPolyFaceMeshVertex
 10
-0.24301578104496
 20
0.0466912686824799
 30
-0.2916666567325592
 70
   192
  0
VERTEX
  5
1AC
330
5A
100
AcDbEntity
  8
0
 62
    28
100
AcDbVertex
100
AcDbPolyFaceMeshVertex
 10
-0.2423058897256851
 20
0.0520833320915699
 30
-0.2916666567325592
 70
   192
  0
VERTEX
  5
1AD
330
5A
100
AcDbEntity
  8
0
 62
    28
100
AcDbVertex
100
AcDbPolyFaceMeshVertex
 10
-0.24301578104496
 20
0.0574753955006599
 30
-0.2916666567325592
 70
   192
  0
VERTEX
  5
1AE
330
5A
100
AcDbEntity
  8
0
 62
    28
100
AcDbVertex
100
AcDbPolyFaceMeshVertex
 10
-0.2450970262289047
 20
0.0625
 30
-0.2916666567325592
 70
   192
  0
VERTEX
  5
1AF
330
5A
100
AcDbEntity
  8
0
 62
    28
100
AcDbVertex
100
AcDbPolyFaceMeshVertex
 10
-0.2484078407287598
 20
0.0668147280812263
 30
-0.2916666567325592
 70
   192
  0
VERTEX
  5
1B0
330
5A
100
AcDbEntity
  8
0
 62
    28
100
AcDbVertex
100
AcDbPolyFaceMeshVertex
 10
-0.2527225613594055
 20
0.0701255276799202
 30
-0.2916666567325592
 70
   192
  0
VERTEX
  5
1B1
330
5A
100
AcDbEntity
  8
0
 62
    28
100
AcDbVertex
100
AcDbPolyFaceMeshVertex
 10
-0.2577471733093262
 20
0.0722067877650261
 30
-0.2916666567325592
 70
   192
  0
VERTEX
  5
1B2
330
5A
100
AcDbEntity
  8
0
 62
    28
100
AcDbVertex
100
AcDbPolyFaceMeshVertex
 10
-0.2631392180919647
 20
0.0729166641831398
 30
-0.2916666567325592
 70
   192
  0
VERTEX
  5
1B3
330
5A
100
AcDbEntity
  8
0
 62
    28
100
AcDbVertex
100
AcDbPolyFaceMeshVertex
 10
-0.2631392180919647
 20
0.0729166641831398
 30
-0.25
 70
   192
  0
VERTEX
  5
1B4
330
5A
100
AcDbEntity
  8
0
 62
    28
100
AcDbVertex
100
AcDbPolyFaceMeshVertex
 10
-0.2577471733093262
 20
0.0722067877650261
 30
-0.25
 70
   192
  0
VERTEX
  5
1B5
330
5A
100
AcDbEntity
  8
0
 62
    28
100
AcDbVertex
100
AcDbPolyFaceMeshVertex
 10
-0.2527225613594055
 20
0.0701255276799202
 30
-0.25
 70
   192
  0
VERTEX
  5
1B6
330
5A
100
AcDbEntity
  8
0
 62
    28
100
AcDbVertex
100
AcDbPolyFaceMeshVertex
 10
-0.2484078407287598
 20
0.0668147280812263
 30
-0.25
 70
   192
  0
VERTEX
  5
1B7
330
5A
100
AcDbEntity
  8
0
 62
    28
100
AcDbVertex
100
AcDbPolyFaceMeshVertex
 10
-0.2450970262289047
 20
0.0625
 30
-0.25
 70
   192
  0
VERTEX
  5
1B8
330
5A
100
AcDbEntity
  8
0
 62
    28
100
AcDbVertex
100
AcDbPolyFaceMeshVertex
 10
-0.24301578104496
 20
0.0574753955006599
 30
-0.25
 70
   192
  0
VERTEX
  5
1B9
330
5A
100
AcDbEntity
  8
0
 62
    28
100
AcDbVertex
100
AcDbPolyFaceMeshVertex
 10
-0.2423058897256851
 20
0.0520833320915699
 30
-0.25
 70
   192
  0
VERTEX
  5
1BA
330
5A
100
AcDbEntity
  8
0
 62
    28
100
AcDbVertex
100
AcDbPolyFaceMeshVertex
 10
-0.24301578104496
 20
0.0466912686824799
 30
-0.25
 70
   192
  0
VERTEX
  5
1BB
330
5A
100
AcDbEntity
  8
0
 62
    28
100
AcDbVertex
100
AcDbPolyFaceMeshVertex
 10
-0.2450970262289047
 20
0.0416666679084301
 30
-0.25
 70
   192
  0
VERTEX
  5
1BC
330
5A
100
AcDbEntity
  8
0
 62
    28
100
AcDbVertex
100
AcDbPolyFaceMeshVertex
 10
-0.2484078407287598
 20
0.037351943552494
 30
-0.25
 70
   192
  0
VERTEX
  5
1BD
330
5A
100
AcDbEntity
  8
0
 62
    28
100
AcDbVertex
100
AcDbPolyFaceMeshVertex
 10
-0.2527225613594055
 20
0.0340411365032196
 30
-0.25
 70
   192
  0
VERTEX
  5
1BE
330
5A
100
AcDbEntity
  8
0
 62
    28
100
AcDbVertex
100
AcDbPolyFaceMeshVertex
 10
-0.2577471733093262
 20
0.031959880143404
 30
-0.25
 70
   192
  0
VERTEX
  5
1BF
330
5A
100
AcDbEntity
  8
0
 62
    28
100
AcDbVertex
100
AcDbPolyFaceMeshVertex
 10
-0.2207626849412918
 20
0.0574753955006599
 30
-0.2916666567325592
 70
   192
  0
VERTEX
  5
1C0
330
5A
100
AcDbEntity
  8
0
 62
    28
100
AcDbVertex
100
AcDbPolyFaceMeshVertex
 10
-0.2186814248561859
 20
0.0625
 30
-0.2916666567325592
 70
   192
  0
VERTEX
  5
1C1
330
5A
100
AcDbEntity
  8
0
 62
    28
100
AcDbVertex
100
AcDbPolyFaceMeshVertex
 10
-0.2153706252574921
 20
0.0668147280812263
 30
-0.2916666567325592
 70
   192
  0
VERTEX
  5
1C2
330
5A
100
AcDbEntity
  8
0
 62
    28
100
AcDbVertex
100
AcDbPolyFaceMeshVertex
 10
-0.2110558897256851
 20
0.0701255276799202
 30
-0.2916666567325592
 70
   192
  0
VERTEX
  5
1C3
330
5A
100
AcDbEntity
  8
0
 62
    28
100
AcDbVertex
100
AcDbPolyFaceMeshVertex
 10
-0.2060312926769257
 20
0.0722067877650261
 30
-0.2916666567325592
 70
   192
  0
VERTEX
  5
1C4
330
5A
100
AcDbEntity
  8
0
 62
    28
100
AcDbVertex
100
AcDbPolyFaceMeshVertex
 10
-0.2006392329931259
 20
0.0729166641831398
 30
-0.2916666567325592
 70
   192
  0
VERTEX
  5
1C5
330
5A
100
AcDbEntity
  8
0
 62
    28
100
AcDbVertex
100
AcDbPolyFaceMeshVertex
 10
-0.195247158408165
 20
0.0722067877650261
 30
-0.2916666567325592
 70
   192
  0
VERTEX
  5
1C6
330
5A
100
AcDbEntity
  8
0
 62
    28
100
AcDbVertex
100
AcDbPolyFaceMeshVertex
 10
-0.1902225613594055
 20
0.0701255276799202
 30
-0.2916666567325592
 70
   192
  0
VERTEX
  5
1C7
330
5A
100
AcDbEntity
  8
0
 62
    28
100
AcDbVertex
100
AcDbPolyFaceMeshVertex
 10
-0.1859078407287598
 20
0.0668147280812263
 30
-0.2916666567325592
 70
   192
  0
VERTEX
  5
1C8
330
5A
100
AcDbEntity
  8
0
 62
    28
100
AcDbVertex
100
AcDbPolyFaceMeshVertex
 10
-0.1825970262289047
 20
0.0625
 30
-0.2916666567325592
 70
   192
  0
VERTEX
  5
1C9
330
5A
100
AcDbEntity
  8
0
 62
    28
100
AcDbVertex
100
AcDbPolyFaceMeshVertex
 10
-0.18051578104496
 20
0.0574753955006599
 30
-0.2916666567325592
 70
   192
  0
VERTEX
  5
1CA
330
5A
100
AcDbEntity
  8
0
 62
    28
100
AcDbVertex
100
AcDbPolyFaceMeshVertex
 10
-0.1798058897256851
 20
0.0520833320915699
 30
-0.2916666567325592
 70
   192
  0
VERTEX
  5
1CB
330
5A
100
AcDbEntity
  8
0
 62
    28
100
AcDbVertex
100
AcDbPolyFaceMeshVertex
 10
-0.18051578104496
 20
0.0466912686824799
 30
-0.2916666567325592
 70
   192
  0
VERTEX
  5
1CC
330
5A
100
AcDbEntity
  8
0
 62
    28
100
AcDbVertex
100
AcDbPolyFaceMeshVertex
 10
-0.1825970262289047
 20
0.0416666679084301
 30
-0.2916666567325592
 70
   192
  0
VERTEX
  5
1CD
330
5A
100
AcDbEntity
  8
0
 62
    28
100
AcDbVertex
100
AcDbPolyFaceMeshVertex
 10
-0.1859078407287598
 20
0.037351943552494
 30
-0.2916666567325592
 70
   192
  0
VERTEX
  5
1CE
330
5A
100
AcDbEntity
  8
0
 62
    28
100
AcDbVertex
100
AcDbPolyFaceMeshVertex
 10
-0.1902225613594055
 20
0.0340411365032196
 30
-0.2916666567325592
 70
   192
  0
VERTEX
  5
1CF
330
5A
100
AcDbEntity
  8
0
 62
    28
100
AcDbVertex
100
AcDbPolyFaceMeshVertex
 10
-0.195247158408165
 20
0.031959880143404
 30
-0.2916666567325592
 70
   192
  0
VERTEX
  5
1D0
330
5A
100
AcDbEntity
  8
0
 62
    28
100
AcDbVertex
100
AcDbPolyFaceMeshVertex
 10
-0.2006392329931259
 20
0.03125
 30
-0.2916666567325592
 70
   192
  0
VERTEX
  5
1D1
330
5A
100
AcDbEntity
  8
0
 62
    28
100
AcDbVertex
100
AcDbPolyFaceMeshVertex
 10
-0.2060312926769257
 20
0.031959880143404
 30
-0.2916666567325592
 70
   192
  0
VERTEX
  5
1D2
330
5A
100
AcDbEntity
  8
0
 62
    28
100
AcDbVertex
100
AcDbPolyFaceMeshVertex
 10
-0.2110558897256851
 20
0.0340411365032196
 30
-0.2916666567325592
 70
   192
  0
VERTEX
  5
1D3
330
5A
100
AcDbEntity
  8
0
 62
    28
100
AcDbVertex
100
AcDbPolyFaceMeshVertex
 10
-0.2153706252574921
 20
0.037351943552494
 30
-0.2916666567325592
 70
   192
  0
VERTEX
  5
1D4
330
5A
100
AcDbEntity
  8
0
 62
    28
100
AcDbVertex
100
AcDbPolyFaceMeshVertex
 10
-0.2186814248561859
 20
0.0416666679084301
 30
-0.2916666567325592
 70
   192
  0
VERTEX
  5
1D5
330
5A
100
AcDbEntity
  8
0
 62
    28
100
AcDbVertex
100
AcDbPolyFaceMeshVertex
 10
-0.2207626849412918
 20
0.0466912686824799
 30
-0.2916666567325592
 70
   192
  0
VERTEX
  5
1D6
330
5A
100
AcDbEntity
  8
0
 62
    28
100
AcDbVertex
100
AcDbPolyFaceMeshVertex
 10
-0.2214725613594055
 20
0.0520833320915699
 30
-0.2916666567325592
 70
   192
  0
VERTEX
  5
1D7
330
5A
100
AcDbEntity
  8
0
 62
    28
100
AcDbVertex
100
AcDbPolyFaceMeshVertex
 10
-0.2006392329931259
 20
0.03125
 30
-0.25
 70
   192
  0
VERTEX
  5
1D8
330
5A
100
AcDbEntity
  8
0
 62
    28
100
AcDbVertex
100
AcDbPolyFaceMeshVertex
 10
-0.2060312926769257
 20
0.031959880143404
 30
-0.25
 70
   192
  0
VERTEX
  5
1D9
330
5A
100
AcDbEntity
  8
0
 62
    28
100
AcDbVertex
100
AcDbPolyFaceMeshVertex
 10
-0.2110558897256851
 20
0.0340411365032196
 30
-0.25
 70
   192
  0
VERTEX
  5
1DA
330
5A
100
AcDbEntity
  8
0
 62
    28
100
AcDbVertex
100
AcDbPolyFaceMeshVertex
 10
-0.2153706252574921
 20
0.037351943552494
 30
-0.25
 70
   192
  0
VERTEX
  5
1DB
330
5A
100
AcDbEntity
  8
0
 62
    28
100
AcDbVertex
100
AcDbPolyFaceMeshVertex
 10
-0.2186814248561859
 20
0.0416666679084301
 30
-0.25
 70
   192
  0
VERTEX
  5
1DC
330
5A
100
AcDbEntity
  8
0
 62
    28
100
AcDbVertex
100
AcDbPolyFaceMeshVertex
 10
-0.2207626849412918
 20
0.0466912686824799
 30
-0.25
 70
   192
  0
VERTEX
  5
1DD
330
5A
100
AcDbEntity
  8
0
 62
    28
100
AcDbVertex
100
AcDbPolyFaceMeshVertex
 10
-0.2214725613594055
 20
0.0520833320915699
 30
-0.25
 70
   192
  0
VERTEX
  5
1DE
330
5A
100
AcDbEntity
  8
0
 62
    28
100
AcDbVertex
100
AcDbPolyFaceMeshVertex
 10
-0.2207626849412918
 20
0.0574753955006599
 30
-0.25
 70
   192
  0
VERTEX
  5
1DF
330
5A
100
AcDbEntity
  8
0
 62
    28
100
AcDbVertex
100
AcDbPolyFaceMeshVertex
 10
-0.2186814248561859
 20
0.0625
 30
-0.25
 70
   192
  0
VERTEX
  5
1E0
330
5A
100
AcDbEntity
  8
0
 62
    28
100
AcDbVertex
100
AcDbPolyFaceMeshVertex
 10
-0.2153706252574921
 20
0.0668147280812263
 30
-0.25
 70
   192
  0
VERTEX
  5
1E1
330
5A
100
AcDbEntity
  8
0
 62
    28
100
AcDbVertex
100
AcDbPolyFaceMeshVertex
 10
-0.2110558897256851
 20
0.0701255276799202
 30
-0.25
 70
   192
  0
VERTEX
  5
1E2
330
5A
100
AcDbEntity
  8
0
 62
    28
100
AcDbVertex
100
AcDbPolyFaceMeshVertex
 10
-0.2060312926769257
 20
0.0722067877650261
 30
-0.25
 70
   192
  0
VERTEX
  5
1E3
330
5A
100
AcDbEntity
  8
0
 62
    28
100
AcDbVertex
100
AcDbPolyFaceMeshVertex
 10
-0.2006392329931259
 20
0.0729166641831398
 30
-0.25
 70
   192
  0
VERTEX
  5
1E4
330
5A
100
AcDbEntity
  8
0
 62
    28
100
AcDbVertex
100
AcDbPolyFaceMeshVertex
 10
-0.2006392329931259
 20
0.0729166641831398
 30
-0.2916666567325592
 70
   192
  0
VERTEX
  5
1E5
330
5A
100
AcDbEntity
  8
0
 62
    28
100
AcDbVertex
100
AcDbPolyFaceMeshVertex
 10
-0.2060312926769257
 20
0.0722067877650261
 30
-0.2916666567325592
 70
   192
  0
VERTEX
  5
1E6
330
5A
100
AcDbEntity
  8
0
 62
    28
100
AcDbVertex
100
AcDbPolyFaceMeshVertex
 10
-0.2110558897256851
 20
0.0701255276799202
 30
-0.2916666567325592
 70
   192
  0
VERTEX
  5
1E7
330
5A
100
AcDbEntity
  8
0
 62
    28
100
AcDbVertex
100
AcDbPolyFaceMeshVertex
 10
-0.2153706252574921
 20
0.0668147280812263
 30
-0.2916666567325592
 70
   192
  0
VERTEX
  5
1E8
330
5A
100
AcDbEntity
  8
0
 62
    28
100
AcDbVertex
100
AcDbPolyFaceMeshVertex
 10
-0.2186814248561859
 20
0.0625
 30
-0.2916666567325592
 70
   192
  0
VERTEX
  5
1E9
330
5A
100
AcDbEntity
  8
0
 62
    28
100
AcDbVertex
100
AcDbPolyFaceMeshVertex
 10
-0.2207626849412918
 20
0.0574753955006599
 30
-0.2916666567325592
 70
   192
  0
VERTEX
  5
1EA
330
5A
100
AcDbEntity
  8
0
 62
    28
100
AcDbVertex
100
AcDbPolyFaceMeshVertex
 10
-0.2214725613594055
 20
0.0520833320915699
 30
-0.2916666567325592
 70
   192
  0
VERTEX
  5
1EB
330
5A
100
AcDbEntity
  8
0
 62
    28
100
AcDbVertex
100
AcDbPolyFaceMeshVertex
 10
-0.2207626849412918
 20
0.0466912686824799
 30
-0.2916666567325592
 70
   192
  0
VERTEX
  5
1EC
330
5A
100
AcDbEntity
  8
0
 62
    28
100
AcDbVertex
100
AcDbPolyFaceMeshVertex
 10
-0.2186814248561859
 20
0.0416666679084301
 30
-0.2916666567325592
 70
   192
  0
VERTEX
  5
1ED
330
5A
100
AcDbEntity
  8
0
 62
    28
100
AcDbVertex
100
AcDbPolyFaceMeshVertex
 10
-0.2153706252574921
 20
0.037351943552494
 30
-0.2916666567325592
 70
   192
  0
VERTEX
  5
1EE
330
5A
100
AcDbEntity
  8
0
 62
    28
100
AcDbVertex
100
AcDbPolyFaceMeshVertex
 10
-0.2110558897256851
 20
0.0340411365032196
 30
-0.2916666567325592
 70
   192
  0
VERTEX
  5
1EF
330
5A
100
AcDbEntity
  8
0
 62
    28
100
AcDbVertex
100
AcDbPolyFaceMeshVertex
 10
-0.2060312926769257
 20
0.031959880143404
 30
-0.2916666567325592
 70
   192
  0
VERTEX
  5
1F0
330
5A
100
AcDbEntity
  8
0
 62
    28
100
AcDbVertex
100
AcDbPolyFaceMeshVertex
 10
-0.2006392329931259
 20
0.03125
 30
-0.2916666567325592
 70
   192
  0
VERTEX
  5
1F1
330
5A
100
AcDbEntity
  8
0
 62
    28
100
AcDbVertex
100
AcDbPolyFaceMeshVertex
 10
-0.195247158408165
 20
0.031959880143404
 30
-0.2916666567325592
 70
   192
  0
VERTEX
  5
1F2
330
5A
100
AcDbEntity
  8
0
 62
    28
100
AcDbVertex
100
AcDbPolyFaceMeshVertex
 10
-0.1902225613594055
 20
0.0340411365032196
 30
-0.2916666567325592
 70
   192
  0
VERTEX
  5
1F3
330
5A
100
AcDbEntity
  8
0
 62
    28
100
AcDbVertex
100
AcDbPolyFaceMeshVertex
 10
-0.1859078407287598
 20
0.037351943552494
 30
-0.2916666567325592
 70
   192
  0
VERTEX
  5
1F4
330
5A
100
AcDbEntity
  8
0
 62
    28
100
AcDbVertex
100
AcDbPolyFaceMeshVertex
 10
-0.1825970262289047
 20
0.0416666679084301
 30
-0.2916666567325592
 70
   192
  0
VERTEX
  5
1F5
330
5A
100
AcDbEntity
  8
0
 62
    28
100
AcDbVertex
100
AcDbPolyFaceMeshVertex
 10
-0.18051578104496
 20
0.0466912686824799
 30
-0.2916666567325592
 70
   192
  0
VERTEX
  5
1F6
330
5A
100
AcDbEntity
  8
0
 62
    28
100
AcDbVertex
100
AcDbPolyFaceMeshVertex
 10
-0.1798058897256851
 20
0.0520833320915699
 30
-0.2916666567325592
 70
   192
  0
VERTEX
  5
1F7
330
5A
100
AcDbEntity
  8
0
 62
    28
100
AcDbVertex
100
AcDbPolyFaceMeshVertex
 10
-0.18051578104496
 20
0.0574753955006599
 30
-0.2916666567325592
 70
   192
  0
VERTEX
  5
1F8
330
5A
100
AcDbEntity
  8
0
 62
    28
100
AcDbVertex
100
AcDbPolyFaceMeshVertex
 10
-0.1825970262289047
 20
0.0625
 30
-0.2916666567325592
 70
   192
  0
VERTEX
  5
1F9
330
5A
100
AcDbEntity
  8
0
 62
    28
100
AcDbVertex
100
AcDbPolyFaceMeshVertex
 10
-0.1859078407287598
 20
0.0668147280812263
 30
-0.2916666567325592
 70
   192
  0
VERTEX
  5
1FA
330
5A
100
AcDbEntity
  8
0
 62
    28
100
AcDbVertex
100
AcDbPolyFaceMeshVertex
 10
-0.1902225613594055
 20
0.0701255276799202
 30
-0.2916666567325592
 70
   192
  0
VERTEX
  5
1FB
330
5A
100
AcDbEntity
  8
0
 62
    28
100
AcDbVertex
100
AcDbPolyFaceMeshVertex
 10
-0.195247158408165
 20
0.0722067877650261
 30
-0.2916666567325592
 70
   192
  0
VERTEX
  5
1FC
330
5A
100
AcDbEntity
  8
0
 62
    28
100
AcDbVertex
100
AcDbPolyFaceMeshVertex
 10
-0.2006392329931259
 20
0.0729166641831398
 30
-0.2916666567325592
 70
   192
  0
VERTEX
  5
1FD
330
5A
100
AcDbEntity
  8
0
 62
    28
100
AcDbVertex
100
AcDbPolyFaceMeshVertex
 10
-0.2006392329931259
 20
0.0729166641831398
 30
-0.25
 70
   192
  0
VERTEX
  5
1FE
330
5A
100
AcDbEntity
  8
0
 62
    28
100
AcDbVertex
100
AcDbPolyFaceMeshVertex
 10
-0.195247158408165
 20
0.0722067877650261
 30
-0.25
 70
   192
  0
VERTEX
  5
1FF
330
5A
100
AcDbEntity
  8
0
 62
    28
100
AcDbVertex
100
AcDbPolyFaceMeshVertex
 10
-0.1902225613594055
 20
0.0701255276799202
 30
-0.25
 70
   192
  0
VERTEX
  5
200
330
5A
100
AcDbEntity
  8
0
 62
    28
100
AcDbVertex
100
AcDbPolyFaceMeshVertex
 10
-0.1859078407287598
 20
0.0668147280812263
 30
-0.25
 70
   192
  0
VERTEX
  5
201
330
5A
100
AcDbEntity
  8
0
 62
    28
100
AcDbVertex
100
AcDbPolyFaceMeshVertex
 10
-0.1825970262289047
 20
0.0625
 30
-0.25
 70
   192
  0
VERTEX
  5
202
330
5A
100
AcDbEntity
  8
0
 62
    28
100
AcDbVertex
100
AcDbPolyFaceMeshVertex
 10
-0.18051578104496
 20
0.0574753955006599
 30
-0.25
 70
   192
  0
VERTEX
  5
203
330
5A
100
AcDbEntity
  8
0
 62
    28
100
AcDbVertex
100
AcDbPolyFaceMeshVertex
 10
-0.1798058897256851
 20
0.0520833320915699
 30
-0.25
 70
   192
  0
VERTEX
  5
204
330
5A
100
AcDbEntity
  8
0
 62
    28
100
AcDbVertex
100
AcDbPolyFaceMeshVertex
 10
-0.18051578104496
 20
0.0466912686824799
 30
-0.25
 70
   192
  0
VERTEX
  5
205
330
5A
100
AcDbEntity
  8
0
 62
    28
100
AcDbVertex
100
AcDbPolyFaceMeshVertex
 10
-0.1825970262289047
 20
0.0416666679084301
 30
-0.25
 70
   192
  0
VERTEX
  5
206
330
5A
100
AcDbEntity
  8
0
 62
    28
100
AcDbVertex
100
AcDbPolyFaceMeshVertex
 10
-0.1859078407287598
 20
0.037351943552494
 30
-0.25
 70
   192
  0
VERTEX
  5
207
330
5A
100
AcDbEntity
  8
0
 62
    28
100
AcDbVertex
100
AcDbPolyFaceMeshVertex
 10
-0.1902225613594055
 20
0.0340411365032196
 30
-0.25
 70
   192
  0
VERTEX
  5
208
330
5A
100
AcDbEntity
  8
0
 62
    28
100
AcDbVertex
100
AcDbPolyFaceMeshVertex
 10
-0.195247158408165
 20
0.031959880143404
 30
-0.25
 70
   192
  0
VERTEX
  5
209
330
5A
100
AcDbEntity
  8
0
 62
    28
100
AcDbFaceRecord
 10
0.0
 20
0.0
 30
0.0
 70
   128
 71
     1
 72
     2
 73
     3
  0
VERTEX
  5
20A
330
5A
100
AcDbEntity
  8
0
 62
    28
100
AcDbFaceRecord
 10
0.0
 20
0.0
 30
0.0
 70
   128
 71
     1
 72
     3
 73
     6
  0
VERTEX
  5
20B
330
5A
100
AcDbEntity
  8
0
 62
    28
100
AcDbFaceRecord
 10
0.0
 20
0.0
 30
0.0
 70
   128
 71
     6
 72
     3
 73
     5
  0
VERTEX
  5
20C
330
5A
100
AcDbEntity
  8
0
 62
    28
100
AcDbFaceRecord
 10
0.0
 20
0.0
 30
0.0
 70
   128
 71
     5
 72
     3
 73
     4
  0
VERTEX
  5
20D
330
5A
100
AcDbEntity
  8
0
 62
    28
100
AcDbFaceRecord
 10
0.0
 20
0.0
 30
0.0
 70
   128
 71
     7
 72
     8
 73
    10
  0
VERTEX
  5
20E
330
5A
100
AcDbEntity
  8
0
 62
    28
100
AcDbFaceRecord
 10
0.0
 20
0.0
 30
0.0
 70
   128
 71
    10
 72
     8
 73
     9
  0
VERTEX
  5
20F
330
5A
100
AcDbEntity
  8
0
 62
    28
100
AcDbFaceRecord
 10
0.0
 20
0.0
 30
0.0
 70
   128
 71
     7
 72
    10
 73
    12
  0
VERTEX
  5
210
330
5A
100
AcDbEntity
  8
0
 62
    28
100
AcDbFaceRecord
 10
0.0
 20
0.0
 30
0.0
 70
   128
 71
    12
 72
    10
 73
    11
  0
VERTEX
  5
211
330
5A
100
AcDbEntity
  8
0
 62
    28
100
AcDbFaceRecord
 10
0.0
 20
0.0
 30
0.0
 70
   128
 71
    13
 72
    14
 73
    37
  0
VERTEX
  5
212
330
5A
100
AcDbEntity
  8
0
 62
    28
100
AcDbFaceRecord
 10
0.0
 20
0.0
 30
0.0
 70
   128
 71
    37
 72
    14
 73
    38
  0
VERTEX
  5
213
330
5A
100
AcDbEntity
  8
0
 62
    28
100
AcDbFaceRecord
 10
0.0
 20
0.0
 30
0.0
 70
   128
 71
    38
 72
    14
 73
    15
  0
VERTEX
  5
214
330
5A
100
AcDbEntity
  8
0
 62
    28
100
AcDbFaceRecord
 10
0.0
 20
0.0
 30
0.0
 70
   128
 71
    38
 72
    15
 73
    16
  0
VERTEX
  5
215
330
5A
100
AcDbEntity
  8
0
 62
    28
100
AcDbFaceRecord
 10
0.0
 20
0.0
 30
0.0
 70
   128
 71
    38
 72
    16
 73
    39
  0
VERTEX
  5
216
330
5A
100
AcDbEntity
  8
0
 62
    28
100
AcDbFaceRecord
 10
0.0
 20
0.0
 30
0.0
 70
   128
 71
    39
 72
    16
 73
    17
  0
VERTEX
  5
217
330
5A
100
AcDbEntity
  8
0
 62
    28
100
AcDbFaceRecord
 10
0.0
 20
0.0
 30
0.0
 70
   128
 71
    39
 72
    17
 73
    40
  0
VERTEX
  5
218
330
5A
100
AcDbEntity
  8
0
 62
    28
100
AcDbFaceRecord
 10
0.0
 20
0.0
 30
0.0
 70
   128
 71
    40
 72
    17
 73
    41
  0
VERTEX
  5
219
330
5A
100
AcDbEntity
  8
0
 62
    28
100
AcDbFaceRecord
 10
0.0
 20
0.0
 30
0.0
 70
   128
 71
    41
 72
    17
 73
    18
  0
VERTEX
  5
21A
330
5A
100
AcDbEntity
  8
0
 62
    28
100
AcDbFaceRecord
 10
0.0
 20
0.0
 30
0.0
 70
   128
 71
    41
 72
    18
 73
    42
  0
VERTEX
  5
21B
330
5A
100
AcDbEntity
  8
0
 62
    28
100
AcDbFaceRecord
 10
0.0
 20
0.0
 30
0.0
 70
   128
 71
    42
 72
    18
 73
    19
  0
VERTEX
  5
21C
330
5A
100
AcDbEntity
  8
0
 62
    28
100
AcDbFaceRecord
 10
0.0
 20
0.0
 30
0.0
 70
   128
 71
    42
 72
    19
 73
    43
  0
VERTEX
  5
21D
330
5A
100
AcDbEntity
  8
0
 62
    28
100
AcDbFaceRecord
 10
0.0
 20
0.0
 30
0.0
 70
   128
 71
    43
 72
    19
 73
    20
  0
VERTEX
  5
21E
330
5A
100
AcDbEntity
  8
0
 62
    28
100
AcDbFaceRecord
 10
0.0
 20
0.0
 30
0.0
 70
   128
 71
    43
 72
    20
 73
    44
  0
VERTEX
  5
21F
330
5A
100
AcDbEntity
  8
0
 62
    28
100
AcDbFaceRecord
 10
0.0
 20
0.0
 30
0.0
 70
   128
 71
    44
 72
    20
 73
    21
  0
VERTEX
  5
220
330
5A
100
AcDbEntity
  8
0
 62
    28
100
AcDbFaceRecord
 10
0.0
 20
0.0
 30
0.0
 70
   128
 71
    44
 72
    21
 73
    45
  0
VERTEX
  5
221
330
5A
100
AcDbEntity
  8
0
 62
    28
100
AcDbFaceRecord
 10
0.0
 20
0.0
 30
0.0
 70
   128
 71
    45
 72
    21
 73
    46
  0
VERTEX
  5
222
330
5A
100
AcDbEntity
  8
0
 62
    28
100
AcDbFaceRecord
 10
0.0
 20
0.0
 30
0.0
 70
   128
 71
    46
 72
    21
 73
    22
  0
VERTEX
  5
223
330
5A
100
AcDbEntity
  8
0
 62
    28
100
AcDbFaceRecord
 10
0.0
 20
0.0
 30
0.0
 70
   128
 71
    46
 72
    22
 73
    23
  0
VERTEX
  5
224
330
5A
100
AcDbEntity
  8
0
 62
    28
100
AcDbFaceRecord
 10
0.0
 20
0.0
 30
0.0
 70
   128
 71
    46
 72
    23
 73
    24
  0
VERTEX
  5
225
330
5A
100
AcDbEntity
  8
0
 62
    28
100
AcDbFaceRecord
 10
0.0
 20
0.0
 30
0.0
 70
   128
 71
    46
 72
    24
 73
    25
  0
VERTEX
  5
226
330
5A
100
AcDbEntity
  8
0
 62
    28
100
AcDbFaceRecord
 10
0.0
 20
0.0
 30
0.0
 70
   128
 71
    46
 72
    25
 73
    26
  0
VERTEX
  5
227
330
5A
100
AcDbEntity
  8
0
 62
    28
100
AcDbFaceRecord
 10
0.0
 20
0.0
 30
0.0
 70
   128
 71
    46
 72
    26
 73
    27
  0
VERTEX
  5
228
330
5A
100
AcDbEntity
  8
0
 62
    28
100
AcDbFaceRecord
 10
0.0
 20
0.0
 30
0.0
 70
   128
 71
    46
 72
    27
 73
    28
  0
VERTEX
  5
229
330
5A
100
AcDbEntity
  8
0
 62
    28
100
AcDbFaceRecord
 10
0.0
 20
0.0
 30
0.0
 70
   128
 71
    46
 72
    28
 73
    29
  0
VERTEX
  5
22A
330
5A
100
AcDbEntity
  8
0
 62
    28
100
AcDbFaceRecord
 10
0.0
 20
0.0
 30
0.0
 70
   128
 71
    46
 72
    29
 73
    30
  0
VERTEX
  5
22B
330
5A
100
AcDbEntity
  8
0
 62
    28
100
AcDbFaceRecord
 10
0.0
 20
0.0
 30
0.0
 70
   128
 71
    46
 72
    30
 73
    47
  0
VERTEX
  5
22C
330
5A
100
AcDbEntity
  8
0
 62
    28
100
AcDbFaceRecord
 10
0.0
 20
0.0
 30
0.0
 70
   128
 71
    47
 72
    30
 73
    31
  0
VERTEX
  5
22D
330
5A
100
AcDbEntity
  8
0
 62
    28
100
AcDbFaceRecord
 10
0.0
 20
0.0
 30
0.0
 70
   128
 71
    47
 72
    31
 73
    32
  0
VERTEX
  5
22E
330
5A
100
AcDbEntity
  8
0
 62
    28
100
AcDbFaceRecord
 10
0.0
 20
0.0
 30
0.0
 70
   128
 71
    47
 72
    32
 73
    33
  0
VERTEX
  5
22F
330
5A
100
AcDbEntity
  8
0
 62
    28
100
AcDbFaceRecord
 10
0.0
 20
0.0
 30
0.0
 70
   128
 71
    47
 72
    33
 73
    34
  0
VERTEX
  5
230
330
5A
100
AcDbEntity
  8
0
 62
    28
100
AcDbFaceRecord
 10
0.0
 20
0.0
 30
0.0
 70
   128
 71
    47
 72
    34
 73
    35
  0
VERTEX
  5
231
330
5A
100
AcDbEntity
  8
0
 62
    28
100
AcDbFaceRecord
 10
0.0
 20
0.0
 30
0.0
 70
   128
 71
    47
 72
    35
 73
    36
  0
VERTEX
  5
232
330
5A
100
AcDbEntity
  8
0
 62
    28
100
AcDbFaceRecord
 10
0.0
 20
0.0
 30
0.0
 70
   128
 71
    47
 72
    36
 73
    13
  0
VERTEX
  5
233
330
5A
100
AcDbEntity
  8
0
 62
    28
100
AcDbFaceRecord
 10
0.0
 20
0.0
 30
0.0
 70
   128
 71
    47
 72
    13
 73
    48
  0
VERTEX
  5
234
330
5A
100
AcDbEntity
  8
0
 62
    28
100
AcDbFaceRecord
 10
0.0
 20
0.0
 30
0.0
 70
   128
 71
    48
 72
    13
 73
    37
  0
VERTEX
  5
235
330
5A
100
AcDbEntity
  8
0
 62
    28
100
AcDbFaceRecord
 10
0.0
 20
0.0
 30
0.0
 70
   128
 71
    49
 72
    44
 73
    45
  0
VERTEX
  5
236
330
5A
100
AcDbEntity
  8
0
 62
    28
100
AcDbFaceRecord
 10
0.0
 20
0.0
 30
0.0
 70
   128
 71
    49
 72
    45
 73
    50
  0
VERTEX
  5
237
330
5A
100
AcDbEntity
  8
0
 62
    28
100
AcDbFaceRecord
 10
0.0
 20
0.0
 30
0.0
 70
   128
 71
    50
 72
    45
 73
    51
  0
VERTEX
  5
238
330
5A
100
AcDbEntity
  8
0
 62
    28
100
AcDbFaceRecord
 10
0.0
 20
0.0
 30
0.0
 70
   128
 71
    51
 72
    45
 73
    52
  0
VERTEX
  5
239
330
5A
100
AcDbEntity
  8
0
 62
    28
100
AcDbFaceRecord
 10
0.0
 20
0.0
 30
0.0
 70
   128
 71
    52
 72
    45
 73
    53
  0
VERTEX
  5
23A
330
5A
100
AcDbEntity
  8
0
 62
    28
100
AcDbFaceRecord
 10
0.0
 20
0.0
 30
0.0
 70
   128
 71
    53
 72
    45
 73
    54
  0
VERTEX
  5
23B
330
5A
100
AcDbEntity
  8
0
 62
    28
100
AcDbFaceRecord
 10
0.0
 20
0.0
 30
0.0
 70
   128
 71
    54
 72
    45
 73
    55
  0
VERTEX
  5
23C
330
5A
100
AcDbEntity
  8
0
 62
    28
100
AcDbFaceRecord
 10
0.0
 20
0.0
 30
0.0
 70
   128
 71
    55
 72
    45
 73
    56
  0
VERTEX
  5
23D
330
5A
100
AcDbEntity
  8
0
 62
    28
100
AcDbFaceRecord
 10
0.0
 20
0.0
 30
0.0
 70
   128
 71
    56
 72
    45
 73
    57
  0
VERTEX
  5
23E
330
5A
100
AcDbEntity
  8
0
 62
    28
100
AcDbFaceRecord
 10
0.0
 20
0.0
 30
0.0
 70
   128
 71
    57
 72
    45
 73
    58
  0
VERTEX
  5
23F
330
5A
100
AcDbEntity
  8
0
 62
    28
100
AcDbFaceRecord
 10
0.0
 20
0.0
 30
0.0
 70
   128
 71
    58
 72
    47
 73
    48
  0
VERTEX
  5
240
330
5A
100
AcDbEntity
  8
0
 62
    28
100
AcDbFaceRecord
 10
0.0
 20
0.0
 30
0.0
 70
   128
 71
    58
 72
    48
 73
    59
  0
VERTEX
  5
241
330
5A
100
AcDbEntity
  8
0
 62
    28
100
AcDbFaceRecord
 10
0.0
 20
0.0
 30
0.0
 70
   128
 71
    64
 72
    57
 73
    58
  0
VERTEX
  5
242
330
5A
100
AcDbEntity
  8
0
 62
    28
100
AcDbFaceRecord
 10
0.0
 20
0.0
 30
0.0
 70
   128
 71
    64
 72
    58
 73
    63
  0
VERTEX
  5
243
330
5A
100
AcDbEntity
  8
0
 62
    28
100
AcDbFaceRecord
 10
0.0
 20
0.0
 30
0.0
 70
   128
 71
    63
 72
    58
 73
    62
  0
VERTEX
  5
244
330
5A
100
AcDbEntity
  8
0
 62
    28
100
AcDbFaceRecord
 10
0.0
 20
0.0
 30
0.0
 70
   128
 71
    62
 72
    58
 73
    61
  0
VERTEX
  5
245
330
5A
100
AcDbEntity
  8
0
 62
    28
100
AcDbFaceRecord
 10
0.0
 20
0.0
 30
0.0
 70
   128
 71
    61
 72
    58
 73
    60
  0
VERTEX
  5
246
330
5A
100
AcDbEntity
  8
0
 62
    28
100
AcDbFaceRecord
 10
0.0
 20
0.0
 30
0.0
 70
   128
 71
    60
 72
    58
 73
    59
  0
VERTEX
  5
247
330
5A
100
AcDbEntity
  8
0
 62
    28
100
AcDbFaceRecord
 10
0.0
 20
0.0
 30
0.0
 70
   128
 71
    65
 72
    66
 73
    67
  0
VERTEX
  5
248
330
5A
100
AcDbEntity
  8
0
 62
    28
100
AcDbFaceRecord
 10
0.0
 20
0.0
 30
0.0
 70
   128
 71
    65
 72
    67
 73
    68
  0
VERTEX
  5
249
330
5A
100
AcDbEntity
  8
0
 62
    28
100
AcDbFaceRecord
 10
0.0
 20
0.0
 30
0.0
 70
   128
 71
    69
 72
    70
 73
    71
  0
VERTEX
  5
24A
330
5A
100
AcDbEntity
  8
0
 62
    28
100
AcDbFaceRecord
 10
0.0
 20
0.0
 30
0.0
 70
   128
 71
    69
 72
    71
 73
    72
  0
VERTEX
  5
24B
330
5A
100
AcDbEntity
  8
0
 62
    28
100
AcDbFaceRecord
 10
0.0
 20
0.0
 30
0.0
 70
   128
 71
    73
 72
    74
 73
    75
  0
VERTEX
  5
24C
330
5A
100
AcDbEntity
  8
0
 62
    28
100
AcDbFaceRecord
 10
0.0
 20
0.0
 30
0.0
 70
   128
 71
    73
 72
    75
 73
    76
  0
VERTEX
  5
24D
330
5A
100
AcDbEntity
  8
0
 62
    28
100
AcDbFaceRecord
 10
0.0
 20
0.0
 30
0.0
 70
   128
 71
    77
 72
    78
 73
    79
  0
VERTEX
  5
24E
330
5A
100
AcDbEntity
  8
0
 62
    28
100
AcDbFaceRecord
 10
0.0
 20
0.0
 30
0.0
 70
   128
 71
    77
 72
    79
 73
    80
  0
VERTEX
  5
24F
330
5A
100
AcDbEntity
  8
0
 62
    28
100
AcDbFaceRecord
 10
0.0
 20
0.0
 30
0.0
 70
   128
 71
    81
 72
    82
 73
   105
  0
VERTEX
  5
250
330
5A
100
AcDbEntity
  8
0
 62
    28
100
AcDbFaceRecord
 10
0.0
 20
0.0
 30
0.0
 70
   128
 71
   105
 72
    82
 73
   106
  0
VERTEX
  5
251
330
5A
100
AcDbEntity
  8
0
 62
    28
100
AcDbFaceRecord
 10
0.0
 20
0.0
 30
0.0
 70
   128
 71
   106
 72
    82
 73
    83
  0
VERTEX
  5
252
330
5A
100
AcDbEntity
  8
0
 62
    28
100
AcDbFaceRecord
 10
0.0
 20
0.0
 30
0.0
 70
   128
 71
   106
 72
    83
 73
   107
  0
VERTEX
  5
253
330
5A
100
AcDbEntity
  8
0
 62
    28
100
AcDbFaceRecord
 10
0.0
 20
0.0
 30
0.0
 70
   128
 71
   107
 72
    83
 73
    84
  0
VERTEX
  5
254
330
5A
100
AcDbEntity
  8
0
 62
    28
100
AcDbFaceRecord
 10
0.0
 20
0.0
 30
0.0
 70
   128
 71
   107
 72
    84
 73
   108
  0
VERTEX
  5
255
330
5A
100
AcDbEntity
  8
0
 62
    28
100
AcDbFaceRecord
 10
0.0
 20
0.0
 30
0.0
 70
   128
 71
   108
 72
    84
 73
    85
  0
VERTEX
  5
256
330
5A
100
AcDbEntity
  8
0
 62
    28
100
AcDbFaceRecord
 10
0.0
 20
0.0
 30
0.0
 70
   128
 71
   108
 72
    85
 73
   109
  0
VERTEX
  5
257
330
5A
100
AcDbEntity
  8
0
 62
    28
100
AcDbFaceRecord
 10
0.0
 20
0.0
 30
0.0
 70
   128
 71
   109
 72
    85
 73
    86
  0
VERTEX
  5
258
330
5A
100
AcDbEntity
  8
0
 62
    28
100
AcDbFaceRecord
 10
0.0
 20
0.0
 30
0.0
 70
   128
 71
   109
 72
    86
 73
   110
  0
VERTEX
  5
259
330
5A
100
AcDbEntity
  8
0
 62
    28
100
AcDbFaceRecord
 10
0.0
 20
0.0
 30
0.0
 70
   128
 71
   110
 72
    86
 73
    87
  0
VERTEX
  5
25A
330
5A
100
AcDbEntity
  8
0
 62
    28
100
AcDbFaceRecord
 10
0.0
 20
0.0
 30
0.0
 70
   128
 71
   110
 72
    87
 73
   111
  0
VERTEX
  5
25B
330
5A
100
AcDbEntity
  8
0
 62
    28
100
AcDbFaceRecord
 10
0.0
 20
0.0
 30
0.0
 70
   128
 71
   111
 72
    87
 73
    88
  0
VERTEX
  5
25C
330
5A
100
AcDbEntity
  8
0
 62
    28
100
AcDbFaceRecord
 10
0.0
 20
0.0
 30
0.0
 70
   128
 71
   111
 72
    88
 73
   112
  0
VERTEX
  5
25D
330
5A
100
AcDbEntity
  8
0
 62
    28
100
AcDbFaceRecord
 10
0.0
 20
0.0
 30
0.0
 70
   128
 71
   112
 72
    88
 73
    89
  0
VERTEX
  5
25E
330
5A
100
AcDbEntity
  8
0
 62
    28
100
AcDbFaceRecord
 10
0.0
 20
0.0
 30
0.0
 70
   128
 71
   112
 72
    89
 73
   113
  0
VERTEX
  5
25F
330
5A
100
AcDbEntity
  8
0
 62
    28
100
AcDbFaceRecord
 10
0.0
 20
0.0
 30
0.0
 70
   128
 71
   113
 72
    89
 73
    90
  0
VERTEX
  5
260
330
5A
100
AcDbEntity
  8
0
 62
    28
100
AcDbFaceRecord
 10
0.0
 20
0.0
 30
0.0
 70
   128
 71
   113
 72
    90
 73
   114
  0
VERTEX
  5
261
330
5A
100
AcDbEntity
  8
0
 62
    28
100
AcDbFaceRecord
 10
0.0
 20
0.0
 30
0.0
 70
   128
 71
   114
 72
    90
 73
    91
  0
VERTEX
  5
262
330
5A
100
AcDbEntity
  8
0
 62
    28
100
AcDbFaceRecord
 10
0.0
 20
0.0
 30
0.0
 70
   128
 71
   114
 72
    91
 73
   115
  0
VERTEX
  5
263
330
5A
100
AcDbEntity
  8
0
 62
    28
100
AcDbFaceRecord
 10
0.0
 20
0.0
 30
0.0
 70
   128
 71
   115
 72
    91
 73
   116
  0
VERTEX
  5
264
330
5A
100
AcDbEntity
  8
0
 62
    28
100
AcDbFaceRecord
 10
0.0
 20
0.0
 30
0.0
 70
   128
 71
   116
 72
    91
 73
    92
  0
VERTEX
  5
265
330
5A
100
AcDbEntity
  8
0
 62
    28
100
AcDbFaceRecord
 10
0.0
 20
0.0
 30
0.0
 70
   128
 71
   116
 72
    92
 73
    93
  0
VERTEX
  5
266
330
5A
100
AcDbEntity
  8
0
 62
    28
100
AcDbFaceRecord
 10
0.0
 20
0.0
 30
0.0
 70
   128
 71
   116
 72
    93
 73
    94
  0
VERTEX
  5
267
330
5A
100
AcDbEntity
  8
0
 62
    28
100
AcDbFaceRecord
 10
0.0
 20
0.0
 30
0.0
 70
   128
 71
   116
 72
    94
 73
    95
  0
VERTEX
  5
268
330
5A
100
AcDbEntity
  8
0
 62
    28
100
AcDbFaceRecord
 10
0.0
 20
0.0
 30
0.0
 70
   128
 71
   116
 72
    95
 73
    96
  0
VERTEX
  5
269
330
5A
100
AcDbEntity
  8
0
 62
    28
100
AcDbFaceRecord
 10
0.0
 20
0.0
 30
0.0
 70
   128
 71
   116
 72
    96
 73
   117
  0
VERTEX
  5
26A
330
5A
100
AcDbEntity
  8
0
 62
    28
100
AcDbFaceRecord
 10
0.0
 20
0.0
 30
0.0
 70
   128
 71
   117
 72
    96
 73
    97
  0
VERTEX
  5
26B
330
5A
100
AcDbEntity
  8
0
 62
    28
100
AcDbFaceRecord
 10
0.0
 20
0.0
 30
0.0
 70
   128
 71
   117
 72
    97
 73
    98
  0
VERTEX
  5
26C
330
5A
100
AcDbEntity
  8
0
 62
    28
100
AcDbFaceRecord
 10
0.0
 20
0.0
 30
0.0
 70
   128
 71
   117
 72
    98
 73
    99
  0
VERTEX
  5
26D
330
5A
100
AcDbEntity
  8
0
 62
    28
100
AcDbFaceRecord
 10
0.0
 20
0.0
 30
0.0
 70
   128
 71
   117
 72
    99
 73
   100
  0
VERTEX
  5
26E
330
5A
100
AcDbEntity
  8
0
 62
    28
100
AcDbFaceRecord
 10
0.0
 20
0.0
 30
0.0
 70
   128
 71
   117
 72
   100
 73
   101
  0
VERTEX
  5
26F
330
5A
100
AcDbEntity
  8
0
 62
    28
100
AcDbFaceRecord
 10
0.0
 20
0.0
 30
0.0
 70
   128
 71
   117
 72
   101
 73
   102
  0
VERTEX
  5
270
330
5A
100
AcDbEntity
  8
0
 62
    28
100
AcDbFaceRecord
 10
0.0
 20
0.0
 30
0.0
 70
   128
 71
   117
 72
   102
 73
   103
  0
VERTEX
  5
271
330
5A
100
AcDbEntity
  8
0
 62
    28
100
AcDbFaceRecord
 10
0.0
 20
0.0
 30
0.0
 70
   128
 71
   117
 72
   103
 73
   104
  0
VERTEX
  5
272
330
5A
100
AcDbEntity
  8
0
 62
    28
100
AcDbFaceRecord
 10
0.0
 20
0.0
 30
0.0
 70
   128
 71
   117
 72
   104
 73
   118
  0
VERTEX
  5
273
330
5A
100
AcDbEntity
  8
0
 62
    28
100
AcDbFaceRecord
 10
0.0
 20
0.0
 30
0.0
 70
   128
 71
   118
 72
   104
 73
    81
  0
VERTEX
  5
274
330
5A
100
AcDbEntity
  8
0
 62
    28
100
AcDbFaceRecord
 10
0.0
 20
0.0
 30
0.0
 70
   128
 71
   118
 72
    81
 73
   105
  0
VERTEX
  5
275
330
5A
100
AcDbEntity
  8
0
 62
    28
100
AcDbFaceRecord
 10
0.0
 20
0.0
 30
0.0
 70
   128
 71
   119
 72
   115
 73
   116
  0
VERTEX
  5
276
330
5A
100
AcDbEntity
  8
0
 62
    28
100
AcDbFaceRecord
 10
0.0
 20
0.0
 30
0.0
 70
   128
 71
   119
 72
   116
 73
   120
  0
VERTEX
  5
277
330
5A
100
AcDbEntity
  8
0
 62
    28
100
AcDbFaceRecord
 10
0.0
 20
0.0
 30
0.0
 70
   128
 71
   120
 72
   116
 73
   121
  0
VERTEX
  5
278
330
5A
100
AcDbEntity
  8
0
 62
    28
100
AcDbFaceRecord
 10
0.0
 20
0.0
 30
0.0
 70
   128
 71
   121
 72
   116
 73
   122
  0
VERTEX
  5
279
330
5A
100
AcDbEntity
  8
0
 62
    28
100
AcDbFaceRecord
 10
0.0
 20
0.0
 30
0.0
 70
   128
 71
   123
 72
   117
 73
   118
  0
VERTEX
  5
27A
330
5A
100
AcDbEntity
  8
0
 62
    28
100
AcDbFaceRecord
 10
0.0
 20
0.0
 30
0.0
 70
   128
 71
   123
 72
   118
 73
   124
  0
VERTEX
  5
27B
330
5A
100
AcDbEntity
  8
0
 62
    28
100
AcDbFaceRecord
 10
0.0
 20
0.0
 30
0.0
 70
   128
 71
   132
 72
   121
 73
   122
  0
VERTEX
  5
27C
330
5A
100
AcDbEntity
  8
0
 62
    28
100
AcDbFaceRecord
 10
0.0
 20
0.0
 30
0.0
 70
   128
 71
   132
 72
   122
 73
   131
  0
VERTEX
  5
27D
330
5A
100
AcDbEntity
  8
0
 62
    28
100
AcDbFaceRecord
 10
0.0
 20
0.0
 30
0.0
 70
   128
 71
   131
 72
   122
 73
   130
  0
VERTEX
  5
27E
330
5A
100
AcDbEntity
  8
0
 62
    28
100
AcDbFaceRecord
 10
0.0
 20
0.0
 30
0.0
 70
   128
 71
   130
 72
   122
 73
   123
  0
VERTEX
  5
27F
330
5A
100
AcDbEntity
  8
0
 62
    28
100
AcDbFaceRecord
 10
0.0
 20
0.0
 30
0.0
 70
   128
 71
   130
 72
   123
 73
   129
  0
VERTEX
  5
280
330
5A
100
AcDbEntity
  8
0
 62
    28
100
AcDbFaceRecord
 10
0.0
 20
0.0
 30
0.0
 70
   128
 71
   129
 72
   123
 73
   128
  0
VERTEX
  5
281
330
5A
100
AcDbEntity
  8
0
 62
    28
100
AcDbFaceRecord
 10
0.0
 20
0.0
 30
0.0
 70
   128
 71
   128
 72
   123
 73
   127
  0
VERTEX
  5
282
330
5A
100
AcDbEntity
  8
0
 62
    28
100
AcDbFaceRecord
 10
0.0
 20
0.0
 30
0.0
 70
   128
 71
   127
 72
   123
 73
   126
  0
VERTEX
  5
283
330
5A
100
AcDbEntity
  8
0
 62
    28
100
AcDbFaceRecord
 10
0.0
 20
0.0
 30
0.0
 70
   128
 71
   126
 72
   123
 73
   125
  0
VERTEX
  5
284
330
5A
100
AcDbEntity
  8
0
 62
    28
100
AcDbFaceRecord
 10
0.0
 20
0.0
 30
0.0
 70
   128
 71
   125
 72
   123
 73
   124
  0
VERTEX
  5
285
330
5A
100
AcDbEntity
  8
0
 62
    28
100
AcDbFaceRecord
 10
0.0
 20
0.0
 30
0.0
 70
   128
 71
   133
 72
   134
 73
   135
  0
VERTEX
  5
286
330
5A
100
AcDbEntity
  8
0
 62
    28
100
AcDbFaceRecord
 10
0.0
 20
0.0
 30
0.0
 70
   128
 71
   133
 72
   135
 73
   156
  0
VERTEX
  5
287
330
5A
100
AcDbEntity
  8
0
 62
    28
100
AcDbFaceRecord
 10
0.0
 20
0.0
 30
0.0
 70
   128
 71
   156
 72
   135
 73
   146
  0
VERTEX
  5
288
330
5A
100
AcDbEntity
  8
0
 62
    28
100
AcDbFaceRecord
 10
0.0
 20
0.0
 30
0.0
 70
   128
 71
   146
 72
   135
 73
   142
  0
VERTEX
  5
289
330
5A
100
AcDbEntity
  8
0
 62
    28
100
AcDbFaceRecord
 10
0.0
 20
0.0
 30
0.0
 70
   128
 71
   142
 72
   135
 73
   136
  0
VERTEX
  5
28A
330
5A
100
AcDbEntity
  8
0
 62
    28
100
AcDbFaceRecord
 10
0.0
 20
0.0
 30
0.0
 70
   128
 71
   142
 72
   136
 73
   139
  0
VERTEX
  5
28B
330
5A
100
AcDbEntity
  8
0
 62
    28
100
AcDbFaceRecord
 10
0.0
 20
0.0
 30
0.0
 70
   128
 71
   139
 72
   136
 73
   137
  0
VERTEX
  5
28C
330
5A
100
AcDbEntity
  8
0
 62
    28
100
AcDbFaceRecord
 10
0.0
 20
0.0
 30
0.0
 70
   128
 71
   139
 72
   137
 73
   138
  0
VERTEX
  5
28D
330
5A
100
AcDbEntity
  8
0
 62
    28
100
AcDbFaceRecord
 10
0.0
 20
0.0
 30
0.0
 70
   128
 71
   142
 72
   139
 73
   141
  0
VERTEX
  5
28E
330
5A
100
AcDbEntity
  8
0
 62
    28
100
AcDbFaceRecord
 10
0.0
 20
0.0
 30
0.0
 70
   128
 71
   141
 72
   139
 73
   140
  0
VERTEX
  5
28F
330
5A
100
AcDbEntity
  8
0
 62
    28
100
AcDbFaceRecord
 10
0.0
 20
0.0
 30
0.0
 70
   128
 71
   146
 72
   142
 73
   143
  0
VERTEX
  5
290
330
5A
100
AcDbEntity
  8
0
 62
    28
100
AcDbFaceRecord
 10
0.0
 20
0.0
 30
0.0
 70
   128
 71
   146
 72
   143
 73
   144
  0
VERTEX
  5
291
330
5A
100
AcDbEntity
  8
0
 62
    28
100
AcDbFaceRecord
 10
0.0
 20
0.0
 30
0.0
 70
   128
 71
   146
 72
   144
 73
   145
  0
VERTEX
  5
292
330
5A
100
AcDbEntity
  8
0
 62
    28
100
AcDbFaceRecord
 10
0.0
 20
0.0
 30
0.0
 70
   128
 71
   156
 72
   146
 73
   148
  0
VERTEX
  5
293
330
5A
100
AcDbEntity
  8
0
 62
    28
100
AcDbFaceRecord
 10
0.0
 20
0.0
 30
0.0
 70
   128
 71
   148
 72
   146
 73
   147
  0
VERTEX
  5
294
330
5A
100
AcDbEntity
  8
0
 62
    28
100
AcDbFaceRecord
 10
0.0
 20
0.0
 30
0.0
 70
   128
 71
   156
 72
   148
 73
   153
  0
VERTEX
  5
295
330
5A
100
AcDbEntity
  8
0
 62
    28
100
AcDbFaceRecord
 10
0.0
 20
0.0
 30
0.0
 70
   128
 71
   153
 72
   148
 73
   152
  0
VERTEX
  5
296
330
5A
100
AcDbEntity
  8
0
 62
    28
100
AcDbFaceRecord
 10
0.0
 20
0.0
 30
0.0
 70
   128
 71
   152
 72
   148
 73
   151
  0
VERTEX
  5
297
330
5A
100
AcDbEntity
  8
0
 62
    28
100
AcDbFaceRecord
 10
0.0
 20
0.0
 30
0.0
 70
   128
 71
   151
 72
   148
 73
   150
  0
VERTEX
  5
298
330
5A
100
AcDbEntity
  8
0
 62
    28
100
AcDbFaceRecord
 10
0.0
 20
0.0
 30
0.0
 70
   128
 71
   150
 72
   148
 73
   149
  0
VERTEX
  5
299
330
5A
100
AcDbEntity
  8
0
 62
    28
100
AcDbFaceRecord
 10
0.0
 20
0.0
 30
0.0
 70
   128
 71
   156
 72
   153
 73
   155
  0
VERTEX
  5
29A
330
5A
100
AcDbEntity
  8
0
 62
    28
100
AcDbFaceRecord
 10
0.0
 20
0.0
 30
0.0
 70
   128
 71
   155
 72
   153
 73
   154
  0
VERTEX
  5
29B
330
5A
100
AcDbEntity
  8
0
 62
    28
100
AcDbFaceRecord
 10
0.0
 20
0.0
 30
0.0
 70
   128
 71
   157
 72
   158
 73
   181
  0
VERTEX
  5
29C
330
5A
100
AcDbEntity
  8
0
 62
    28
100
AcDbFaceRecord
 10
0.0
 20
0.0
 30
0.0
 70
   128
 71
   181
 72
   158
 73
   180
  0
VERTEX
  5
29D
330
5A
100
AcDbEntity
  8
0
 62
    28
100
AcDbFaceRecord
 10
0.0
 20
0.0
 30
0.0
 70
   128
 71
   180
 72
   158
 73
   159
  0
VERTEX
  5
29E
330
5A
100
AcDbEntity
  8
0
 62
    28
100
AcDbFaceRecord
 10
0.0
 20
0.0
 30
0.0
 70
   128
 71
   180
 72
   159
 73
   179
  0
VERTEX
  5
29F
330
5A
100
AcDbEntity
  8
0
 62
    28
100
AcDbFaceRecord
 10
0.0
 20
0.0
 30
0.0
 70
   128
 71
   179
 72
   159
 73
   160
  0
VERTEX
  5
2A0
330
5A
100
AcDbEntity
  8
0
 62
    28
100
AcDbFaceRecord
 10
0.0
 20
0.0
 30
0.0
 70
   128
 71
   179
 72
   160
 73
   178
  0
VERTEX
  5
2A1
330
5A
100
AcDbEntity
  8
0
 62
    28
100
AcDbFaceRecord
 10
0.0
 20
0.0
 30
0.0
 70
   128
 71
   178
 72
   160
 73
   161
  0
VERTEX
  5
2A2
330
5A
100
AcDbEntity
  8
0
 62
    28
100
AcDbFaceRecord
 10
0.0
 20
0.0
 30
0.0
 70
   128
 71
   178
 72
   161
 73
   177
  0
VERTEX
  5
2A3
330
5A
100
AcDbEntity
  8
0
 62
    28
100
AcDbFaceRecord
 10
0.0
 20
0.0
 30
0.0
 70
   128
 71
   177
 72
   161
 73
   162
  0
VERTEX
  5
2A4
330
5A
100
AcDbEntity
  8
0
 62
    28
100
AcDbFaceRecord
 10
0.0
 20
0.0
 30
0.0
 70
   128
 71
   177
 72
   162
 73
   176
  0
VERTEX
  5
2A5
330
5A
100
AcDbEntity
  8
0
 62
    28
100
AcDbFaceRecord
 10
0.0
 20
0.0
 30
0.0
 70
   128
 71
   176
 72
   162
 73
   163
  0
VERTEX
  5
2A6
330
5A
100
AcDbEntity
  8
0
 62
    28
100
AcDbFaceRecord
 10
0.0
 20
0.0
 30
0.0
 70
   128
 71
   176
 72
   163
 73
   175
  0
VERTEX
  5
2A7
330
5A
100
AcDbEntity
  8
0
 62
    28
100
AcDbFaceRecord
 10
0.0
 20
0.0
 30
0.0
 70
   128
 71
   175
 72
   163
 73
   164
  0
VERTEX
  5
2A8
330
5A
100
AcDbEntity
  8
0
 62
    28
100
AcDbFaceRecord
 10
0.0
 20
0.0
 30
0.0
 70
   128
 71
   175
 72
   164
 73
   174
  0
VERTEX
  5
2A9
330
5A
100
AcDbEntity
  8
0
 62
    28
100
AcDbFaceRecord
 10
0.0
 20
0.0
 30
0.0
 70
   128
 71
   174
 72
   164
 73
   165
  0
VERTEX
  5
2AA
330
5A
100
AcDbEntity
  8
0
 62
    28
100
AcDbFaceRecord
 10
0.0
 20
0.0
 30
0.0
 70
   128
 71
   174
 72
   165
 73
   173
  0
VERTEX
  5
2AB
330
5A
100
AcDbEntity
  8
0
 62
    28
100
AcDbFaceRecord
 10
0.0
 20
0.0
 30
0.0
 70
   128
 71
   173
 72
   165
 73
   166
  0
VERTEX
  5
2AC
330
5A
100
AcDbEntity
  8
0
 62
    28
100
AcDbFaceRecord
 10
0.0
 20
0.0
 30
0.0
 70
   128
 71
   173
 72
   166
 73
   172
  0
VERTEX
  5
2AD
330
5A
100
AcDbEntity
  8
0
 62
    28
100
AcDbFaceRecord
 10
0.0
 20
0.0
 30
0.0
 70
   128
 71
   172
 72
   166
 73
   167
  0
VERTEX
  5
2AE
330
5A
100
AcDbEntity
  8
0
 62
    28
100
AcDbFaceRecord
 10
0.0
 20
0.0
 30
0.0
 70
   128
 71
   172
 72
   167
 73
   171
  0
VERTEX
  5
2AF
330
5A
100
AcDbEntity
  8
0
 62
    28
100
AcDbFaceRecord
 10
0.0
 20
0.0
 30
0.0
 70
   128
 71
   171
 72
   167
 73
   168
  0
VERTEX
  5
2B0
330
5A
100
AcDbEntity
  8
0
 62
    28
100
AcDbFaceRecord
 10
0.0
 20
0.0
 30
0.0
 70
   128
 71
   171
 72
   168
 73
   170
  0
VERTEX
  5
2B1
330
5A
100
AcDbEntity
  8
0
 62
    28
100
AcDbFaceRecord
 10
0.0
 20
0.0
 30
0.0
 70
   128
 71
   170
 72
   168
 73
   169
  0
VERTEX
  5
2B2
330
5A
100
AcDbEntity
  8
0
 62
    28
100
AcDbFaceRecord
 10
0.0
 20
0.0
 30
0.0
 70
   128
 71
   157
 72
   181
 73
   182
  0
VERTEX
  5
2B3
330
5A
100
AcDbEntity
  8
0
 62
    28
100
AcDbFaceRecord
 10
0.0
 20
0.0
 30
0.0
 70
   128
 71
   157
 72
   182
 73
   206
  0
VERTEX
  5
2B4
330
5A
100
AcDbEntity
  8
0
 62
    28
100
AcDbFaceRecord
 10
0.0
 20
0.0
 30
0.0
 70
   128
 71
   206
 72
   182
 73
   183
  0
VERTEX
  5
2B5
330
5A
100
AcDbEntity
  8
0
 62
    28
100
AcDbFaceRecord
 10
0.0
 20
0.0
 30
0.0
 70
   128
 71
   206
 72
   183
 73
   205
  0
VERTEX
  5
2B6
330
5A
100
AcDbEntity
  8
0
 62
    28
100
AcDbFaceRecord
 10
0.0
 20
0.0
 30
0.0
 70
   128
 71
   205
 72
   183
 73
   184
  0
VERTEX
  5
2B7
330
5A
100
AcDbEntity
  8
0
 62
    28
100
AcDbFaceRecord
 10
0.0
 20
0.0
 30
0.0
 70
   128
 71
   205
 72
   184
 73
   204
  0
VERTEX
  5
2B8
330
5A
100
AcDbEntity
  8
0
 62
    28
100
AcDbFaceRecord
 10
0.0
 20
0.0
 30
0.0
 70
   128
 71
   204
 72
   184
 73
   185
  0
VERTEX
  5
2B9
330
5A
100
AcDbEntity
  8
0
 62
    28
100
AcDbFaceRecord
 10
0.0
 20
0.0
 30
0.0
 70
   128
 71
   204
 72
   185
 73
   203
  0
VERTEX
  5
2BA
330
5A
100
AcDbEntity
  8
0
 62
    28
100
AcDbFaceRecord
 10
0.0
 20
0.0
 30
0.0
 70
   128
 71
   203
 72
   185
 73
   186
  0
VERTEX
  5
2BB
330
5A
100
AcDbEntity
  8
0
 62
    28
100
AcDbFaceRecord
 10
0.0
 20
0.0
 30
0.0
 70
   128
 71
   203
 72
   186
 73
   202
  0
VERTEX
  5
2BC
330
5A
100
AcDbEntity
  8
0
 62
    28
100
AcDbFaceRecord
 10
0.0
 20
0.0
 30
0.0
 70
   128
 71
   202
 72
   186
 73
   187
  0
VERTEX
  5
2BD
330
5A
100
AcDbEntity
  8
0
 62
    28
100
AcDbFaceRecord
 10
0.0
 20
0.0
 30
0.0
 70
   128
 71
   202
 72
   187
 73
   201
  0
VERTEX
  5
2BE
330
5A
100
AcDbEntity
  8
0
 62
    28
100
AcDbFaceRecord
 10
0.0
 20
0.0
 30
0.0
 70
   128
 71
   201
 72
   187
 73
   188
  0
VERTEX
  5
2BF
330
5A
100
AcDbEntity
  8
0
 62
    28
100
AcDbFaceRecord
 10
0.0
 20
0.0
 30
0.0
 70
   128
 71
   201
 72
   188
 73
   200
  0
VERTEX
  5
2C0
330
5A
100
AcDbEntity
  8
0
 62
    28
100
AcDbFaceRecord
 10
0.0
 20
0.0
 30
0.0
 70
   128
 71
   200
 72
   188
 73
   189
  0
VERTEX
  5
2C1
330
5A
100
AcDbEntity
  8
0
 62
    28
100
AcDbFaceRecord
 10
0.0
 20
0.0
 30
0.0
 70
   128
 71
   200
 72
   189
 73
   199
  0
VERTEX
  5
2C2
330
5A
100
AcDbEntity
  8
0
 62
    28
100
AcDbFaceRecord
 10
0.0
 20
0.0
 30
0.0
 70
   128
 71
   199
 72
   189
 73
   190
  0
VERTEX
  5
2C3
330
5A
100
AcDbEntity
  8
0
 62
    28
100
AcDbFaceRecord
 10
0.0
 20
0.0
 30
0.0
 70
   128
 71
   199
 72
   190
 73
   198
  0
VERTEX
  5
2C4
330
5A
100
AcDbEntity
  8
0
 62
    28
100
AcDbFaceRecord
 10
0.0
 20
0.0
 30
0.0
 70
   128
 71
   198
 72
   190
 73
   191
  0
VERTEX
  5
2C5
330
5A
100
AcDbEntity
  8
0
 62
    28
100
AcDbFaceRecord
 10
0.0
 20
0.0
 30
0.0
 70
   128
 71
   198
 72
   191
 73
   197
  0
VERTEX
  5
2C6
330
5A
100
AcDbEntity
  8
0
 62
    28
100
AcDbFaceRecord
 10
0.0
 20
0.0
 30
0.0
 70
   128
 71
   197
 72
   191
 73
   192
  0
VERTEX
  5
2C7
330
5A
100
AcDbEntity
  8
0
 62
    28
100
AcDbFaceRecord
 10
0.0
 20
0.0
 30
0.0
 70
   128
 71
   197
 72
   192
 73
   196
  0
VERTEX
  5
2C8
330
5A
100
AcDbEntity
  8
0
 62
    28
100
AcDbFaceRecord
 10
0.0
 20
0.0
 30
0.0
 70
   128
 71
   196
 72
   192
 73
   193
  0
VERTEX
  5
2C9
330
5A
100
AcDbEntity
  8
0
 62
    28
100
AcDbFaceRecord
 10
0.0
 20
0.0
 30
0.0
 70
   128
 71
   196
 72
   193
 73
   195
  0
VERTEX
  5
2CA
330
5A
100
AcDbEntity
  8
0
 62
    28
100
AcDbFaceRecord
 10
0.0
 20
0.0
 30
0.0
 70
   128
 71
   195
 72
   193
 73
   194
  0
VERTEX
  5
2CB
330
5A
100
AcDbEntity
  8
0
 62
    28
100
AcDbFaceRecord
 10
0.0
 20
0.0
 30
0.0
 70
   128
 71
   207
 72
   208
 73
   209
  0
VERTEX
  5
2CC
330
5A
100
AcDbEntity
  8
0
 62
    28
100
AcDbFaceRecord
 10
0.0
 20
0.0
 30
0.0
 70
   128
 71
   207
 72
   209
 73
   229
  0
VERTEX
  5
2CD
330
5A
100
AcDbEntity
  8
0
 62
    28
100
AcDbFaceRecord
 10
0.0
 20
0.0
 30
0.0
 70
   128
 71
   229
 72
   209
 73
   210
  0
VERTEX
  5
2CE
330
5A
100
AcDbEntity
  8
0
 62
    28
100
AcDbFaceRecord
 10
0.0
 20
0.0
 30
0.0
 70
   128
 71
   229
 72
   210
 73
   227
  0
VERTEX
  5
2CF
330
5A
100
AcDbEntity
  8
0
 62
    28
100
AcDbFaceRecord
 10
0.0
 20
0.0
 30
0.0
 70
   128
 71
   227
 72
   210
 73
   213
  0
VERTEX
  5
2D0
330
5A
100
AcDbEntity
  8
0
 62
    28
100
AcDbFaceRecord
 10
0.0
 20
0.0
 30
0.0
 70
   128
 71
   213
 72
   210
 73
   211
  0
VERTEX
  5
2D1
330
5A
100
AcDbEntity
  8
0
 62
    28
100
AcDbFaceRecord
 10
0.0
 20
0.0
 30
0.0
 70
   128
 71
   213
 72
   211
 73
   212
  0
VERTEX
  5
2D2
330
5A
100
AcDbEntity
  8
0
 62
    28
100
AcDbFaceRecord
 10
0.0
 20
0.0
 30
0.0
 70
   128
 71
   227
 72
   213
 73
   216
  0
VERTEX
  5
2D3
330
5A
100
AcDbEntity
  8
0
 62
    28
100
AcDbFaceRecord
 10
0.0
 20
0.0
 30
0.0
 70
   128
 71
   216
 72
   213
 73
   215
  0
VERTEX
  5
2D4
330
5A
100
AcDbEntity
  8
0
 62
    28
100
AcDbFaceRecord
 10
0.0
 20
0.0
 30
0.0
 70
   128
 71
   215
 72
   213
 73
   214
  0
VERTEX
  5
2D5
330
5A
100
AcDbEntity
  8
0
 62
    28
100
AcDbFaceRecord
 10
0.0
 20
0.0
 30
0.0
 70
   128
 71
   227
 72
   216
 73
   217
  0
VERTEX
  5
2D6
330
5A
100
AcDbEntity
  8
0
 62
    28
100
AcDbFaceRecord
 10
0.0
 20
0.0
 30
0.0
 70
   128
 71
   227
 72
   217
 73
   218
  0
VERTEX
  5
2D7
330
5A
100
AcDbEntity
  8
0
 62
    28
100
AcDbFaceRecord
 10
0.0
 20
0.0
 30
0.0
 70
   128
 71
   227
 72
   218
 73
   220
  0
VERTEX
  5
2D8
330
5A
100
AcDbEntity
  8
0
 62
    28
100
AcDbFaceRecord
 10
0.0
 20
0.0
 30
0.0
 70
   128
 71
   220
 72
   218
 73
   219
  0
VERTEX
  5
2D9
330
5A
100
AcDbEntity
  8
0
 62
    28
100
AcDbFaceRecord
 10
0.0
 20
0.0
 30
0.0
 70
   128
 71
   227
 72
   220
 73
   224
  0
VERTEX
  5
2DA
330
5A
100
AcDbEntity
  8
0
 62
    28
100
AcDbFaceRecord
 10
0.0
 20
0.0
 30
0.0
 70
   128
 71
   224
 72
   220
 73
   222
  0
VERTEX
  5
2DB
330
5A
100
AcDbEntity
  8
0
 62
    28
100
AcDbFaceRecord
 10
0.0
 20
0.0
 30
0.0
 70
   128
 71
   222
 72
   220
 73
   221
  0
VERTEX
  5
2DC
330
5A
100
AcDbEntity
  8
0
 62
    28
100
AcDbFaceRecord
 10
0.0
 20
0.0
 30
0.0
 70
   128
 71
   224
 72
   222
 73
   223
  0
VERTEX
  5
2DD
330
5A
100
AcDbEntity
  8
0
 62
    28
100
AcDbFaceRecord
 10
0.0
 20
0.0
 30
0.0
 70
   128
 71
   227
 72
   224
 73
   225
  0
VERTEX
  5
2DE
330
5A
100
AcDbEntity
  8
0
 62
    28
100
AcDbFaceRecord
 10
0.0
 20
0.0
 30
0.0
 70
   128
 71
   227
 72
   225
 73
   226
  0
VERTEX
  5
2DF
330
5A
100
AcDbEntity
  8
0
 62
    28
100
AcDbFaceRecord
 10
0.0
 20
0.0
 30
0.0
 70
   128
 71
   229
 72
   227
 73
   228
  0
VERTEX
  5
2E0
330
5A
100
AcDbEntity
  8
0
 62
    28
100
AcDbFaceRecord
 10
0.0
 20
0.0
 30
0.0
 70
   128
 71
   207
 72
   229
 73
   230
  0
VERTEX
  5
2E1
330
5A
100
AcDbEntity
  8
0
 62
    28
100
AcDbFaceRecord
 10
0.0
 20
0.0
 30
0.0
 70
   128
 71
   231
 72
   232
 73
   255
  0
VERTEX
  5
2E2
330
5A
100
AcDbEntity
  8
0
 62
    28
100
AcDbFaceRecord
 10
0.0
 20
0.0
 30
0.0
 70
   128
 71
   255
 72
   232
 73
   254
  0
VERTEX
  5
2E3
330
5A
100
AcDbEntity
  8
0
 62
    28
100
AcDbFaceRecord
 10
0.0
 20
0.0
 30
0.0
 70
   128
 71
   254
 72
   232
 73
   233
  0
VERTEX
  5
2E4
330
5A
100
AcDbEntity
  8
0
 62
    28
100
AcDbFaceRecord
 10
0.0
 20
0.0
 30
0.0
 70
   128
 71
   254
 72
   233
 73
   253
  0
VERTEX
  5
2E5
330
5A
100
AcDbEntity
  8
0
 62
    28
100
AcDbFaceRecord
 10
0.0
 20
0.0
 30
0.0
 70
   128
 71
   253
 72
   233
 73
   234
  0
VERTEX
  5
2E6
330
5A
100
AcDbEntity
  8
0
 62
    28
100
AcDbFaceRecord
 10
0.0
 20
0.0
 30
0.0
 70
   128
 71
   253
 72
   234
 73
   252
  0
VERTEX
  5
2E7
330
5A
100
AcDbEntity
  8
0
 62
    28
100
AcDbFaceRecord
 10
0.0
 20
0.0
 30
0.0
 70
   128
 71
   252
 72
   234
 73
   235
  0
VERTEX
  5
2E8
330
5A
100
AcDbEntity
  8
0
 62
    28
100
AcDbFaceRecord
 10
0.0
 20
0.0
 30
0.0
 70
   128
 71
   252
 72
   235
 73
   251
  0
VERTEX
  5
2E9
330
5A
100
AcDbEntity
  8
0
 62
    28
100
AcDbFaceRecord
 10
0.0
 20
0.0
 30
0.0
 70
   128
 71
   251
 72
   235
 73
   236
  0
VERTEX
  5
2EA
330
5A
100
AcDbEntity
  8
0
 62
    28
100
AcDbFaceRecord
 10
0.0
 20
0.0
 30
0.0
 70
   128
 71
   251
 72
   236
 73
   250
  0
VERTEX
  5
2EB
330
5A
100
AcDbEntity
  8
0
 62
    28
100
AcDbFaceRecord
 10
0.0
 20
0.0
 30
0.0
 70
   128
 71
   250
 72
   236
 73
   237
  0
VERTEX
  5
2EC
330
5A
100
AcDbEntity
  8
0
 62
    28
100
AcDbFaceRecord
 10
0.0
 20
0.0
 30
0.0
 70
   128
 71
   250
 72
   237
 73
   249
  0
VERTEX
  5
2ED
330
5A
100
AcDbEntity
  8
0
 62
    28
100
AcDbFaceRecord
 10
0.0
 20
0.0
 30
0.0
 70
   128
 71
   249
 72
   237
 73
   238
  0
VERTEX
  5
2EE
330
5A
100
AcDbEntity
  8
0
 62
    28
100
AcDbFaceRecord
 10
0.0
 20
0.0
 30
0.0
 70
   128
 71
   249
 72
   238
 73
   248
  0
VERTEX
  5
2EF
330
5A
100
AcDbEntity
  8
0
 62
    28
100
AcDbFaceRecord
 10
0.0
 20
0.0
 30
0.0
 70
   128
 71
   248
 72
   238
 73
   239
  0
VERTEX
  5
2F0
330
5A
100
AcDbEntity
  8
0
 62
    28
100
AcDbFaceRecord
 10
0.0
 20
0.0
 30
0.0
 70
   128
 71
   248
 72
   239
 73
   247
  0
VERTEX
  5
2F1
330
5A
100
AcDbEntity
  8
0
 62
    28
100
AcDbFaceRecord
 10
0.0
 20
0.0
 30
0.0
 70
   128
 71
   247
 72
   239
 73
   240
  0
VERTEX
  5
2F2
330
5A
100
AcDbEntity
  8
0
 62
    28
100
AcDbFaceRecord
 10
0.0
 20
0.0
 30
0.0
 70
   128
 71
   247
 72
   240
 73
   246
  0
VERTEX
  5
2F3
330
5A
100
AcDbEntity
  8
0
 62
    28
100
AcDbFaceRecord
 10
0.0
 20
0.0
 30
0.0
 70
   128
 71
   246
 72
   240
 73
   241
  0
VERTEX
  5
2F4
330
5A
100
AcDbEntity
  8
0
 62
    28
100
AcDbFaceRecord
 10
0.0
 20
0.0
 30
0.0
 70
   128
 71
   246
 72
   241
 73
   245
  0
VERTEX
  5
2F5
330
5A
100
AcDbEntity
  8
0
 62
    28
100
AcDbFaceRecord
 10
0.0
 20
0.0
 30
0.0
 70
   128
 71
   245
 72
   241
 73
   242
  0
VERTEX
  5
2F6
330
5A
100
AcDbEntity
  8
0
 62
    28
100
AcDbFaceRecord
 10
0.0
 20
0.0
 30
0.0
 70
   128
 71
   245
 72
   242
 73
   244
  0
VERTEX
  5
2F7
330
5A
100
AcDbEntity
  8
0
 62
    28
100
AcDbFaceRecord
 10
0.0
 20
0.0
 30
0.0
 70
   128
 71
   244
 72
   242
 73
   243
  0
VERTEX
  5
2F8
330
5A
100
AcDbEntity
  8
0
 62
    28
100
AcDbFaceRecord
 10
0.0
 20
0.0
 30
0.0
 70
   128
 71
   231
 72
   255
 73
   256
  0
VERTEX
  5
2F9
330
5A
100
AcDbEntity
  8
0
 62
    28
100
AcDbFaceRecord
 10
0.0
 20
0.0
 30
0.0
 70
   128
 71
   257
 72
   258
 73
   281
  0
VERTEX
  5
2FA
330
5A
100
AcDbEntity
  8
0
 62
    28
100
AcDbFaceRecord
 10
0.0
 20
0.0
 30
0.0
 70
   128
 71
   281
 72
   258
 73
   280
  0
VERTEX
  5
2FB
330
5A
100
AcDbEntity
  8
0
 62
    28
100
AcDbFaceRecord
 10
0.0
 20
0.0
 30
0.0
 70
   128
 71
   280
 72
   258
 73
   259
  0
VERTEX
  5
2FC
330
5A
100
AcDbEntity
  8
0
 62
    28
100
AcDbFaceRecord
 10
0.0
 20
0.0
 30
0.0
 70
   128
 71
   280
 72
   259
 73
   279
  0
VERTEX
  5
2FD
330
5A
100
AcDbEntity
  8
0
 62
    28
100
AcDbFaceRecord
 10
0.0
 20
0.0
 30
0.0
 70
   128
 71
   279
 72
   259
 73
   260
  0
VERTEX
  5
2FE
330
5A
100
AcDbEntity
  8
0
 62
    28
100
AcDbFaceRecord
 10
0.0
 20
0.0
 30
0.0
 70
   128
 71
   279
 72
   260
 73
   278
  0
VERTEX
  5
2FF
330
5A
100
AcDbEntity
  8
0
 62
    28
100
AcDbFaceRecord
 10
0.0
 20
0.0
 30
0.0
 70
   128
 71
   278
 72
   260
 73
   261
  0
VERTEX
  5
300
330
5A
100
AcDbEntity
  8
0
 62
    28
100
AcDbFaceRecord
 10
0.0
 20
0.0
 30
0.0
 70
   128
 71
   278
 72
   261
 73
   277
  0
VERTEX
  5
301
330
5A
100
AcDbEntity
  8
0
 62
    28
100
AcDbFaceRecord
 10
0.0
 20
0.0
 30
0.0
 70
   128
 71
   277
 72
   261
 73
   262
  0
VERTEX
  5
302
330
5A
100
AcDbEntity
  8
0
 62
    28
100
AcDbFaceRecord
 10
0.0
 20
0.0
 30
0.0
 70
   128
 71
   277
 72
   262
 73
   276
  0
VERTEX
  5
303
330
5A
100
AcDbEntity
  8
0
 62
    28
100
AcDbFaceRecord
 10
0.0
 20
0.0
 30
0.0
 70
   128
 71
   276
 72
   262
 73
   263
  0
VERTEX
  5
304
330
5A
100
AcDbEntity
  8
0
 62
    28
100
AcDbFaceRecord
 10
0.0
 20
0.0
 30
0.0
 70
   128
 71
   276
 72
   263
 73
   275
  0
VERTEX
  5
305
330
5A
100
AcDbEntity
  8
0
 62
    28
100
AcDbFaceRecord
 10
0.0
 20
0.0
 30
0.0
 70
   128
 71
   275
 72
   263
 73
   264
  0
VERTEX
  5
306
330
5A
100
AcDbEntity
  8
0
 62
    28
100
AcDbFaceRecord
 10
0.0
 20
0.0
 30
0.0
 70
   128
 71
   275
 72
   264
 73
   274
  0
VERTEX
  5
307
330
5A
100
AcDbEntity
  8
0
 62
    28
100
AcDbFaceRecord
 10
0.0
 20
0.0
 30
0.0
 70
   128
 71
   274
 72
   264
 73
   265
  0
VERTEX
  5
308
330
5A
100
AcDbEntity
  8
0
 62
    28
100
AcDbFaceRecord
 10
0.0
 20
0.0
 30
0.0
 70
   128
 71
   274
 72
   265
 73
   273
  0
VERTEX
  5
309
330
5A
100
AcDbEntity
  8
0
 62
    28
100
AcDbFaceRecord
 10
0.0
 20
0.0
 30
0.0
 70
   128
 71
   273
 72
   265
 73
   266
  0
VERTEX
  5
30A
330
5A
100
AcDbEntity
  8
0
 62
    28
100
AcDbFaceRecord
 10
0.0
 20
0.0
 30
0.0
 70
   128
 71
   273
 72
   266
 73
   272
  0
VERTEX
  5
30B
330
5A
100
AcDbEntity
  8
0
 62
    28
100
AcDbFaceRecord
 10
0.0
 20
0.0
 30
0.0
 70
   128
 71
   272
 72
   266
 73
   267
  0
VERTEX
  5
30C
330
5A
100
AcDbEntity
  8
0
 62
    28
100
AcDbFaceRecord
 10
0.0
 20
0.0
 30
0.0
 70
   128
 71
   272
 72
   267
 73
   271
  0
VERTEX
  5
30D
330
5A
100
AcDbEntity
  8
0
 62
    28
100
AcDbFaceRecord
 10
0.0
 20
0.0
 30
0.0
 70
   128
 71
   271
 72
   267
 73
   268
  0
VERTEX
  5
30E
330
5A
100
AcDbEntity
  8
0
 62
    28
100
AcDbFaceRecord
 10
0.0
 20
0.0
 30
0.0
 70
   128
 71
   271
 72
   268
 73
   270
  0
VERTEX
  5
30F
330
5A
100
AcDbEntity
  8
0
 62
    28
100
AcDbFaceRecord
 10
0.0
 20
0.0
 30
0.0
 70
   128
 71
   270
 72
   268
 73
   269
  0
VERTEX
  5
310
330
5A
100
AcDbEntity
  8
0
 62
    28
100
AcDbFaceRecord
 10
0.0
 20
0.0
 30
0.0
 70
   128
 71
   257
 72
   281
 73
   282
  0
VERTEX
  5
311
330
5A
100
AcDbEntity
  8
0
 62
    28
100
AcDbFaceRecord
 10
0.0
 20
0.0
 30
0.0
 70
   128
 71
   283
 72
   284
 73
   285
  0
VERTEX
  5
312
330
5A
100
AcDbEntity
  8
0
 62
    28
100
AcDbFaceRecord
 10
0.0
 20
0.0
 30
0.0
 70
   128
 71
   283
 72
   285
 73
   303
  0
VERTEX
  5
313
330
5A
100
AcDbEntity
  8
0
 62
    28
100
AcDbFaceRecord
 10
0.0
 20
0.0
 30
0.0
 70
   128
 71
   303
 72
   285
 73
   302
  0
VERTEX
  5
314
330
5A
100
AcDbEntity
  8
0
 62
    28
100
AcDbFaceRecord
 10
0.0
 20
0.0
 30
0.0
 70
   128
 71
   302
 72
   285
 73
   301
  0
VERTEX
  5
315
330
5A
100
AcDbEntity
  8
0
 62
    28
100
AcDbFaceRecord
 10
0.0
 20
0.0
 30
0.0
 70
   128
 71
   301
 72
   285
 73
   298
  0
VERTEX
  5
316
330
5A
100
AcDbEntity
  8
0
 62
    28
100
AcDbFaceRecord
 10
0.0
 20
0.0
 30
0.0
 70
   128
 71
   298
 72
   285
 73
   293
  0
VERTEX
  5
317
330
5A
100
AcDbEntity
  8
0
 62
    28
100
AcDbFaceRecord
 10
0.0
 20
0.0
 30
0.0
 70
   128
 71
   293
 72
   285
 73
   290
  0
VERTEX
  5
318
330
5A
100
AcDbEntity
  8
0
 62
    28
100
AcDbFaceRecord
 10
0.0
 20
0.0
 30
0.0
 70
   128
 71
   290
 72
   285
 73
   289
  0
VERTEX
  5
319
330
5A
100
AcDbEntity
  8
0
 62
    28
100
AcDbFaceRecord
 10
0.0
 20
0.0
 30
0.0
 70
   128
 71
   289
 72
   285
 73
   288
  0
VERTEX
  5
31A
330
5A
100
AcDbEntity
  8
0
 62
    28
100
AcDbFaceRecord
 10
0.0
 20
0.0
 30
0.0
 70
   128
 71
   288
 72
   285
 73
   287
  0
VERTEX
  5
31B
330
5A
100
AcDbEntity
  8
0
 62
    28
100
AcDbFaceRecord
 10
0.0
 20
0.0
 30
0.0
 70
   128
 71
   287
 72
   285
 73
   286
  0
VERTEX
  5
31C
330
5A
100
AcDbEntity
  8
0
 62
    28
100
AcDbFaceRecord
 10
0.0
 20
0.0
 30
0.0
 70
   128
 71
   293
 72
   290
 73
   291
  0
VERTEX
  5
31D
330
5A
100
AcDbEntity
  8
0
 62
    28
100
AcDbFaceRecord
 10
0.0
 20
0.0
 30
0.0
 70
   128
 71
   293
 72
   291
 73
   292
  0
VERTEX
  5
31E
330
5A
100
AcDbEntity
  8
0
 62
    28
100
AcDbFaceRecord
 10
0.0
 20
0.0
 30
0.0
 70
   128
 71
   298
 72
   293
 73
   295
  0
VERTEX
  5
31F
330
5A
100
AcDbEntity
  8
0
 62
    28
100
AcDbFaceRecord
 10
0.0
 20
0.0
 30
0.0
 70
   128
 71
   295
 72
   293
 73
   294
  0
VERTEX
  5
320
330
5A
100
AcDbEntity
  8
0
 62
    28
100
AcDbFaceRecord
 10
0.0
 20
0.0
 30
0.0
 70
   128
 71
   298
 72
   295
 73
   297
  0
VERTEX
  5
321
330
5A
100
AcDbEntity
  8
0
 62
    28
100
AcDbFaceRecord
 10
0.0
 20
0.0
 30
0.0
 70
   128
 71
   297
 72
   295
 73
   296
  0
VERTEX
  5
322
330
5A
100
AcDbEntity
  8
0
 62
    28
100
AcDbFaceRecord
 10
0.0
 20
0.0
 30
0.0
 70
   128
 71
   301
 72
   298
 73
   299
  0
VERTEX
  5
323
330
5A
100
AcDbEntity
  8
0
 62
    28
100
AcDbFaceRecord
 10
0.0
 20
0.0
 30
0.0
 70
   128
 71
   301
 72
   299
 73
   300
  0
VERTEX
  5
324
330
5A
100
AcDbEntity
  8
0
 62
    28
100
AcDbFaceRecord
 10
0.0
 20
0.0
 30
0.0
 70
   128
 71
   283
 72
   303
 73
   304
  0
VERTEX
  5
325
330
5A
100
AcDbEntity
  8
0
 62
    28
100
AcDbFaceRecord
 10
0.0
 20
0.0
 30
0.0
 70
   128
 71
   283
 72
   304
 73
   306
  0
VERTEX
  5
326
330
5A
100
AcDbEntity
  8
0
 62
    28
100
AcDbFaceRecord
 10
0.0
 20
0.0
 30
0.0
 70
   128
 71
   306
 72
   304
 73
   305
  0
VERTEX
  5
327
330
5A
100
AcDbEntity
  8
0
 62
    28
100
AcDbFaceRecord
 10
0.0
 20
0.0
 30
0.0
 70
   128
 71
   307
 72
   308
 73
   331
  0
VERTEX
  5
328
330
5A
100
AcDbEntity
  8
0
 62
    28
100
AcDbFaceRecord
 10
0.0
 20
0.0
 30
0.0
 70
   128
 71
   331
 72
   308
 73
   330
  0
VERTEX
  5
329
330
5A
100
AcDbEntity
  8
0
 62
    28
100
AcDbFaceRecord
 10
0.0
 20
0.0
 30
0.0
 70
   128
 71
   330
 72
   308
 73
   309
  0
VERTEX
  5
32A
330
5A
100
AcDbEntity
  8
0
 62
    28
100
AcDbFaceRecord
 10
0.0
 20
0.0
 30
0.0
 70
   128
 71
   330
 72
   309
 73
   329
  0
VERTEX
  5
32B
330
5A
100
AcDbEntity
  8
0
 62
    28
100
AcDbFaceRecord
 10
0.0
 20
0.0
 30
0.0
 70
   128
 71
   329
 72
   309
 73
   310
  0
VERTEX
  5
32C
330
5A
100
AcDbEntity
  8
0
 62
    28
100
AcDbFaceRecord
 10
0.0
 20
0.0
 30
0.0
 70
   128
 71
   329
 72
   310
 73
   328
  0
VERTEX
  5
32D
330
5A
100
AcDbEntity
  8
0
 62
    28
100
AcDbFaceRecord
 10
0.0
 20
0.0
 30
0.0
 70
   128
 71
   328
 72
   310
 73
   311
  0
VERTEX
  5
32E
330
5A
100
AcDbEntity
  8
0
 62
    28
100
AcDbFaceRecord
 10
0.0
 20
0.0
 30
0.0
 70
   128
 71
   328
 72
   311
 73
   327
  0
VERTEX
  5
32F
330
5A
100
AcDbEntity
  8
0
 62
    28
100
AcDbFaceRecord
 10
0.0
 20
0.0
 30
0.0
 70
   128
 71
   327
 72
   311
 73
   312
  0
VERTEX
  5
330
330
5A
100
AcDbEntity
  8
0
 62
    28
100
AcDbFaceRecord
 10
0.0
 20
0.0
 30
0.0
 70
   128
 71
   327
 72
   312
 73
   326
  0
VERTEX
  5
331
330
5A
100
AcDbEntity
  8
0
 62
    28
100
AcDbFaceRecord
 10
0.0
 20
0.0
 30
0.0
 70
   128
 71
   326
 72
   312
 73
   313
  0
VERTEX
  5
332
330
5A
100
AcDbEntity
  8
0
 62
    28
100
AcDbFaceRecord
 10
0.0
 20
0.0
 30
0.0
 70
   128
 71
   326
 72
   313
 73
   325
  0
VERTEX
  5
333
330
5A
100
AcDbEntity
  8
0
 62
    28
100
AcDbFaceRecord
 10
0.0
 20
0.0
 30
0.0
 70
   128
 71
   325
 72
   313
 73
   314
  0
VERTEX
  5
334
330
5A
100
AcDbEntity
  8
0
 62
    28
100
AcDbFaceRecord
 10
0.0
 20
0.0
 30
0.0
 70
   128
 71
   325
 72
   314
 73
   324
  0
VERTEX
  5
335
330
5A
100
AcDbEntity
  8
0
 62
    28
100
AcDbFaceRecord
 10
0.0
 20
0.0
 30
0.0
 70
   128
 71
   324
 72
   314
 73
   315
  0
VERTEX
  5
336
330
5A
100
AcDbEntity
  8
0
 62
    28
100
AcDbFaceRecord
 10
0.0
 20
0.0
 30
0.0
 70
   128
 71
   324
 72
   315
 73
   323
  0
VERTEX
  5
337
330
5A
100
AcDbEntity
  8
0
 62
    28
100
AcDbFaceRecord
 10
0.0
 20
0.0
 30
0.0
 70
   128
 71
   323
 72
   315
 73
   316
  0
VERTEX
  5
338
330
5A
100
AcDbEntity
  8
0
 62
    28
100
AcDbFaceRecord
 10
0.0
 20
0.0
 30
0.0
 70
   128
 71
   323
 72
   316
 73
   322
  0
VERTEX
  5
339
330
5A
100
AcDbEntity
  8
0
 62
    28
100
AcDbFaceRecord
 10
0.0
 20
0.0
 30
0.0
 70
   128
 71
   322
 72
   316
 73
   317
  0
VERTEX
  5
33A
330
5A
100
AcDbEntity
  8
0
 62
    28
100
AcDbFaceRecord
 10
0.0
 20
0.0
 30
0.0
 70
   128
 71
   322
 72
   317
 73
   321
  0
VERTEX
  5
33B
330
5A
100
AcDbEntity
  8
0
 62
    28
100
AcDbFaceRecord
 10
0.0
 20
0.0
 30
0.0
 70
   128
 71
   321
 72
   317
 73
   318
  0
VERTEX
  5
33C
330
5A
100
AcDbEntity
  8
0
 62
    28
100
AcDbFaceRecord
 10
0.0
 20
0.0
 30
0.0
 70
   128
 71
   321
 72
   318
 73
   320
  0
VERTEX
  5
33D
330
5A
100
AcDbEntity
  8
0
 62
    28
100
AcDbFaceRecord
 10
0.0
 20
0.0
 30
0.0
 70
   128
 71
   320
 72
   318
 73
   319
  0
VERTEX
  5
33E
330
5A
100
AcDbEntity
  8
0
 62
    28
100
AcDbFaceRecord
 10
0.0
 20
0.0
 30
0.0
 70
   128
 71
   307
 72
   331
 73
   332
  0
VERTEX
  5
33F
330
5A
100
AcDbEntity
  8
0
 62
    28
100
AcDbFaceRecord
 10
0.0
 20
0.0
 30
0.0
 70
   128
 71
   307
 72
   332
 73
   356
  0
VERTEX
  5
340
330
5A
100
AcDbEntity
  8
0
 62
    28
100
AcDbFaceRecord
 10
0.0
 20
0.0
 30
0.0
 70
   128
 71
   356
 72
   332
 73
   333
  0
VERTEX
  5
341
330
5A
100
AcDbEntity
  8
0
 62
    28
100
AcDbFaceRecord
 10
0.0
 20
0.0
 30
0.0
 70
   128
 71
   356
 72
   333
 73
   355
  0
VERTEX
  5
342
330
5A
100
AcDbEntity
  8
0
 62
    28
100
AcDbFaceRecord
 10
0.0
 20
0.0
 30
0.0
 70
   128
 71
   355
 72
   333
 73
   334
  0
VERTEX
  5
343
330
5A
100
AcDbEntity
  8
0
 62
    28
100
AcDbFaceRecord
 10
0.0
 20
0.0
 30
0.0
 70
   128
 71
   355
 72
   334
 73
   354
  0
VERTEX
  5
344
330
5A
100
AcDbEntity
  8
0
 62
    28
100
AcDbFaceRecord
 10
0.0
 20
0.0
 30
0.0
 70
   128
 71
   354
 72
   334
 73
   335
  0
VERTEX
  5
345
330
5A
100
AcDbEntity
  8
0
 62
    28
100
AcDbFaceRecord
 10
0.0
 20
0.0
 30
0.0
 70
   128
 71
   354
 72
   335
 73
   353
  0
VERTEX
  5
346
330
5A
100
AcDbEntity
  8
0
 62
    28
100
AcDbFaceRecord
 10
0.0
 20
0.0
 30
0.0
 70
   128
 71
   353
 72
   335
 73
   336
  0
VERTEX
  5
347
330
5A
100
AcDbEntity
  8
0
 62
    28
100
AcDbFaceRecord
 10
0.0
 20
0.0
 30
0.0
 70
   128
 71
   353
 72
   336
 73
   352
  0
VERTEX
  5
348
330
5A
100
AcDbEntity
  8
0
 62
    28
100
AcDbFaceRecord
 10
0.0
 20
0.0
 30
0.0
 70
   128
 71
   352
 72
   336
 73
   337
  0
VERTEX
  5
349
330
5A
100
AcDbEntity
  8
0
 62
    28
100
AcDbFaceRecord
 10
0.0
 20
0.0
 30
0.0
 70
   128
 71
   352
 72
   337
 73
   351
  0
VERTEX
  5
34A
330
5A
100
AcDbEntity
  8
0
 62
    28
100
AcDbFaceRecord
 10
0.0
 20
0.0
 30
0.0
 70
   128
 71
   351
 72
   337
 73
   338
  0
VERTEX
  5
34B
330
5A
100
AcDbEntity
  8
0
 62
    28
100
AcDbFaceRecord
 10
0.0
 20
0.0
 30
0.0
 70
   128
 71
   351
 72
   338
 73
   350
  0
VERTEX
  5
34C
330
5A
100
AcDbEntity
  8
0
 62
    28
100
AcDbFaceRecord
 10
0.0
 20
0.0
 30
0.0
 70
   128
 71
   350
 72
   338
 73
   339
  0
VERTEX
  5
34D
330
5A
100
AcDbEntity
  8
0
 62
    28
100
AcDbFaceRecord
 10
0.0
 20
0.0
 30
0.0
 70
   128
 71
   350
 72
   339
 73
   349
  0
VERTEX
  5
34E
330
5A
100
AcDbEntity
  8
0
 62
    28
100
AcDbFaceRecord
 10
0.0
 20
0.0
 30
0.0
 70
   128
 71
   349
 72
   339
 73
   340
  0
VERTEX
  5
34F
330
5A
100
AcDbEntity
  8
0
 62
    28
100
AcDbFaceRecord
 10
0.0
 20
0.0
 30
0.0
 70
   128
 71
   349
 72
   340
 73
   348
  0
VERTEX
  5
350
330
5A
100
AcDbEntity
  8
0
 62
    28
100
AcDbFaceRecord
 10
0.0
 20
0.0
 30
0.0
 70
   128
 71
   348
 72
   340
 73
   341
  0
VERTEX
  5
351
330
5A
100
AcDbEntity
  8
0
 62
    28
100
AcDbFaceRecord
 10
0.0
 20
0.0
 30
0.0
 70
   128
 71
   348
 72
   341
 73
   347
  0
VERTEX
  5
352
330
5A
100
AcDbEntity
  8
0
 62
    28
100
AcDbFaceRecord
 10
0.0
 20
0.0
 30
0.0
 70
   128
 71
   347
 72
   341
 73
   342
  0
VERTEX
  5
353
330
5A
100
AcDbEntity
  8
0
 62
    28
100
AcDbFaceRecord
 10
0.0
 20
0.0
 30
0.0
 70
   128
 71
   347
 72
   342
 73
   346
  0
VERTEX
  5
354
330
5A
100
AcDbEntity
  8
0
 62
    28
100
AcDbFaceRecord
 10
0.0
 20
0.0
 30
0.0
 70
   128
 71
   346
 72
   342
 73
   343
  0
VERTEX
  5
355
330
5A
100
AcDbEntity
  8
0
 62
    28
100
AcDbFaceRecord
 10
0.0
 20
0.0
 30
0.0
 70
   128
 71
   346
 72
   343
 73
   345
  0
VERTEX
  5
356
330
5A
100
AcDbEntity
  8
0
 62
    28
100
AcDbFaceRecord
 10
0.0
 20
0.0
 30
0.0
 70
   128
 71
   345
 72
   343
 73
   344
  0
VERTEX
  5
357
330
5A
100
AcDbEntity
  8
0
 62
    28
100
AcDbFaceRecord
 10
0.0
 20
0.0
 30
0.0
 70
   128
 71
   357
 72
   358
 73
   359
  0
VERTEX
  5
358
330
5A
100
AcDbEntity
  8
0
 62
    28
100
AcDbFaceRecord
 10
0.0
 20
0.0
 30
0.0
 70
   128
 71
   357
 72
   359
 73
   374
  0
VERTEX
  5
359
330
5A
100
AcDbEntity
  8
0
 62
    28
100
AcDbFaceRecord
 10
0.0
 20
0.0
 30
0.0
 70
   128
 71
   374
 72
   359
 73
   360
  0
VERTEX
  5
35A
330
5A
100
AcDbEntity
  8
0
 62
    28
100
AcDbFaceRecord
 10
0.0
 20
0.0
 30
0.0
 70
   128
 71
   374
 72
   360
 73
   366
  0
VERTEX
  5
35B
330
5A
100
AcDbEntity
  8
0
 62
    28
100
AcDbFaceRecord
 10
0.0
 20
0.0
 30
0.0
 70
   128
 71
   366
 72
   360
 73
   362
  0
VERTEX
  5
35C
330
5A
100
AcDbEntity
  8
0
 62
    28
100
AcDbFaceRecord
 10
0.0
 20
0.0
 30
0.0
 70
   128
 71
   362
 72
   360
 73
   361
  0
VERTEX
  5
35D
330
5A
100
AcDbEntity
  8
0
 62
    28
100
AcDbFaceRecord
 10
0.0
 20
0.0
 30
0.0
 70
   128
 71
   366
 72
   362
 73
   364
  0
VERTEX
  5
35E
330
5A
100
AcDbEntity
  8
0
 62
    28
100
AcDbFaceRecord
 10
0.0
 20
0.0
 30
0.0
 70
   128
 71
   364
 72
   362
 73
   363
  0
VERTEX
  5
35F
330
5A
100
AcDbEntity
  8
0
 62
    28
100
AcDbFaceRecord
 10
0.0
 20
0.0
 30
0.0
 70
   128
 71
   366
 72
   364
 73
   365
  0
VERTEX
  5
360
330
5A
100
AcDbEntity
  8
0
 62
    28
100
AcDbFaceRecord
 10
0.0
 20
0.0
 30
0.0
 70
   128
 71
   374
 72
   366
 73
   371
  0
VERTEX
  5
361
330
5A
100
AcDbEntity
  8
0
 62
    28
100
AcDbFaceRecord
 10
0.0
 20
0.0
 30
0.0
 70
   128
 71
   371
 72
   366
 73
   368
  0
VERTEX
  5
362
330
5A
100
AcDbEntity
  8
0
 62
    28
100
AcDbFaceRecord
 10
0.0
 20
0.0
 30
0.0
 70
   128
 71
   368
 72
   366
 73
   367
  0
VERTEX
  5
363
330
5A
100
AcDbEntity
  8
0
 62
    28
100
AcDbFaceRecord
 10
0.0
 20
0.0
 30
0.0
 70
   128
 71
   371
 72
   368
 73
   370
  0
VERTEX
  5
364
330
5A
100
AcDbEntity
  8
0
 62
    28
100
AcDbFaceRecord
 10
0.0
 20
0.0
 30
0.0
 70
   128
 71
   370
 72
   368
 73
   369
  0
VERTEX
  5
365
330
5A
100
AcDbEntity
  8
0
 62
    28
100
AcDbFaceRecord
 10
0.0
 20
0.0
 30
0.0
 70
   128
 71
   374
 72
   371
 73
   373
  0
VERTEX
  5
366
330
5A
100
AcDbEntity
  8
0
 62
    28
100
AcDbFaceRecord
 10
0.0
 20
0.0
 30
0.0
 70
   128
 71
   373
 72
   371
 73
   372
  0
VERTEX
  5
367
330
5A
100
AcDbEntity
  8
0
 62
    28
100
AcDbFaceRecord
 10
0.0
 20
0.0
 30
0.0
 70
   128
 71
   357
 72
   374
 73
   375
  0
VERTEX
  5
368
330
5A
100
AcDbEntity
  8
0
 62
    28
100
AcDbFaceRecord
 10
0.0
 20
0.0
 30
0.0
 70
   128
 71
   357
 72
   375
 73
   376
  0
VERTEX
  5
369
330
5A
100
AcDbEntity
  8
0
 62
    28
100
AcDbFaceRecord
 10
0.0
 20
0.0
 30
0.0
 70
   128
 71
   357
 72
   376
 73
   378
  0
VERTEX
  5
36A
330
5A
100
AcDbEntity
  8
0
 62
    28
100
AcDbFaceRecord
 10
0.0
 20
0.0
 30
0.0
 70
   128
 71
   378
 72
   376
 73
   377
  0
VERTEX
  5
36B
330
5A
100
AcDbEntity
  8
0
 62
    28
100
AcDbFaceRecord
 10
0.0
 20
0.0
 30
0.0
 70
   128
 71
   357
 72
   378
 73
   380
  0
VERTEX
  5
36C
330
5A
100
AcDbEntity
  8
0
 62
    28
100
AcDbFaceRecord
 10
0.0
 20
0.0
 30
0.0
 70
   128
 71
   380
 72
   378
 73
   379
  0
VERTEX
  5
36D
330
5A
100
AcDbEntity
  8
0
 62
    28
100
AcDbFaceRecord
 10
0.0
 20
0.0
 30
0.0
 70
   128
 71
   381
 72
   382
 73
   405
  0
VERTEX
  5
36E
330
5A
100
AcDbEntity
  8
0
 62
    28
100
AcDbFaceRecord
 10
0.0
 20
0.0
 30
0.0
 70
   128
 71
   405
 72
   382
 73
   404
  0
VERTEX
  5
36F
330
5A
100
AcDbEntity
  8
0
 62
    28
100
AcDbFaceRecord
 10
0.0
 20
0.0
 30
0.0
 70
   128
 71
   404
 72
   382
 73
   383
  0
VERTEX
  5
370
330
5A
100
AcDbEntity
  8
0
 62
    28
100
AcDbFaceRecord
 10
0.0
 20
0.0
 30
0.0
 70
   128
 71
   404
 72
   383
 73
   403
  0
VERTEX
  5
371
330
5A
100
AcDbEntity
  8
0
 62
    28
100
AcDbFaceRecord
 10
0.0
 20
0.0
 30
0.0
 70
   128
 71
   403
 72
   383
 73
   384
  0
VERTEX
  5
372
330
5A
100
AcDbEntity
  8
0
 62
    28
100
AcDbFaceRecord
 10
0.0
 20
0.0
 30
0.0
 70
   128
 71
   403
 72
   384
 73
   402
  0
VERTEX
  5
373
330
5A
100
AcDbEntity
  8
0
 62
    28
100
AcDbFaceRecord
 10
0.0
 20
0.0
 30
0.0
 70
   128
 71
   402
 72
   384
 73
   385
  0
VERTEX
  5
374
330
5A
100
AcDbEntity
  8
0
 62
    28
100
AcDbFaceRecord
 10
0.0
 20
0.0
 30
0.0
 70
   128
 71
   402
 72
   385
 73
   401
  0
VERTEX
  5
375
330
5A
100
AcDbEntity
  8
0
 62
    28
100
AcDbFaceRecord
 10
0.0
 20
0.0
 30
0.0
 70
   128
 71
   401
 72
   385
 73
   386
  0
VERTEX
  5
376
330
5A
100
AcDbEntity
  8
0
 62
    28
100
AcDbFaceRecord
 10
0.0
 20
0.0
 30
0.0
 70
   128
 71
   401
 72
   386
 73
   400
  0
VERTEX
  5
377
330
5A
100
AcDbEntity
  8
0
 62
    28
100
AcDbFaceRecord
 10
0.0
 20
0.0
 30
0.0
 70
   128
 71
   400
 72
   386
 73
   387
  0
VERTEX
  5
378
330
5A
100
AcDbEntity
  8
0
 62
    28
100
AcDbFaceRecord
 10
0.0
 20
0.0
 30
0.0
 70
   128
 71
   400
 72
   387
 73
   399
  0
VERTEX
  5
379
330
5A
100
AcDbEntity
  8
0
 62
    28
100
AcDbFaceRecord
 10
0.0
 20
0.0
 30
0.0
 70
   128
 71
   399
 72
   387
 73
   388
  0
VERTEX
  5
37A
330
5A
100
AcDbEntity
  8
0
 62
    28
100
AcDbFaceRecord
 10
0.0
 20
0.0
 30
0.0
 70
   128
 71
   399
 72
   388
 73
   398
  0
VERTEX
  5
37B
330
5A
100
AcDbEntity
  8
0
 62
    28
100
AcDbFaceRecord
 10
0.0
 20
0.0
 30
0.0
 70
   128
 71
   398
 72
   388
 73
   389
  0
VERTEX
  5
37C
330
5A
100
AcDbEntity
  8
0
 62
    28
100
AcDbFaceRecord
 10
0.0
 20
0.0
 30
0.0
 70
   128
 71
   398
 72
   389
 73
   397
  0
VERTEX
  5
37D
330
5A
100
AcDbEntity
  8
0
 62
    28
100
AcDbFaceRecord
 10
0.0
 20
0.0
 30
0.0
 70
   128
 71
   397
 72
   389
 73
   390
  0
VERTEX
  5
37E
330
5A
100
AcDbEntity
  8
0
 62
    28
100
AcDbFaceRecord
 10
0.0
 20
0.0
 30
0.0
 70
   128
 71
   397
 72
   390
 73
   396
  0
VERTEX
  5
37F
330
5A
100
AcDbEntity
  8
0
 62
    28
100
AcDbFaceRecord
 10
0.0
 20
0.0
 30
0.0
 70
   128
 71
   396
 72
   390
 73
   391
  0
VERTEX
  5
380
330
5A
100
AcDbEntity
  8
0
 62
    28
100
AcDbFaceRecord
 10
0.0
 20
0.0
 30
0.0
 70
   128
 71
   396
 72
   391
 73
   395
  0
VERTEX
  5
381
330
5A
100
AcDbEntity
  8
0
 62
    28
100
AcDbFaceRecord
 10
0.0
 20
0.0
 30
0.0
 70
   128
 71
   395
 72
   391
 73
   392
  0
VERTEX
  5
382
330
5A
100
AcDbEntity
  8
0
 62
    28
100
AcDbFaceRecord
 10
0.0
 20
0.0
 30
0.0
 70
   128
 71
   395
 72
   392
 73
   394
  0
VERTEX
  5
383
330
5A
100
AcDbEntity
  8
0
 62
    28
100
AcDbFaceRecord
 10
0.0
 20
0.0
 30
0.0
 70
   128
 71
   394
 72
   392
 73
   393
  0
VERTEX
  5
384
330
5A
100
AcDbEntity
  8
0
 62
    28
100
AcDbFaceRecord
 10
0.0
 20
0.0
 30
0.0
 70
   128
 71
   381
 72
   405
 73
   406
  0
VERTEX
  5
385
330
5A
100
AcDbEntity
  8
0
 62
    28
100
AcDbFaceRecord
 10
0.0
 20
0.0
 30
0.0
 70
   128
 71
   381
 72
   406
 73
   430
  0
VERTEX
  5
386
330
5A
100
AcDbEntity
  8
0
 62
    28
100
AcDbFaceRecord
 10
0.0
 20
0.0
 30
0.0
 70
   128
 71
   430
 72
   406
 73
   407
  0
VERTEX
  5
387
330
5A
100
AcDbEntity
  8
0
 62
    28
100
AcDbFaceRecord
 10
0.0
 20
0.0
 30
0.0
 70
   128
 71
   430
 72
   407
 73
   429
  0
VERTEX
  5
388
330
5A
100
AcDbEntity
  8
0
 62
    28
100
AcDbFaceRecord
 10
0.0
 20
0.0
 30
0.0
 70
   128
 71
   429
 72
   407
 73
   408
  0
VERTEX
  5
389
330
5A
100
AcDbEntity
  8
0
 62
    28
100
AcDbFaceRecord
 10
0.0
 20
0.0
 30
0.0
 70
   128
 71
   429
 72
   408
 73
   428
  0
VERTEX
  5
38A
330
5A
100
AcDbEntity
  8
0
 62
    28
100
AcDbFaceRecord
 10
0.0
 20
0.0
 30
0.0
 70
   128
 71
   428
 72
   408
 73
   409
  0
VERTEX
  5
38B
330
5A
100
AcDbEntity
  8
0
 62
    28
100
AcDbFaceRecord
 10
0.0
 20
0.0
 30
0.0
 70
   128
 71
   428
 72
   409
 73
   427
  0
VERTEX
  5
38C
330
5A
100
AcDbEntity
  8
0
 62
    28
100
AcDbFaceRecord
 10
0.0
 20
0.0
 30
0.0
 70
   128
 71
   427
 72
   409
 73
   410
  0
VERTEX
  5
38D
330
5A
100
AcDbEntity
  8
0
 62
    28
100
AcDbFaceRecord
 10
0.0
 20
0.0
 30
0.0
 70
   128
 71
   427
 72
   410
 73
   426
  0
VERTEX
  5
38E
330
5A
100
AcDbEntity
  8
0
 62
    28
100
AcDbFaceRecord
 10
0.0
 20
0.0
 30
0.0
 70
   128
 71
   426
 72
   410
 73
   411
  0
VERTEX
  5
38F
330
5A
100
AcDbEntity
  8
0
 62
    28
100
AcDbFaceRecord
 10
0.0
 20
0.0
 30
0.0
 70
   128
 71
   426
 72
   411
 73
   425
  0
VERTEX
  5
390
330
5A
100
AcDbEntity
  8
0
 62
    28
100
AcDbFaceRecord
 10
0.0
 20
0.0
 30
0.0
 70
   128
 71
   425
 72
   411
 73
   412
  0
VERTEX
  5
391
330
5A
100
AcDbEntity
  8
0
 62
    28
100
AcDbFaceRecord
 10
0.0
 20
0.0
 30
0.0
 70
   128
 71
   425
 72
   412
 73
   424
  0
VERTEX
  5
392
330
5A
100
AcDbEntity
  8
0
 62
    28
100
AcDbFaceRecord
 10
0.0
 20
0.0
 30
0.0
 70
   128
 71
   424
 72
   412
 73
   413
  0
VERTEX
  5
393
330
5A
100
AcDbEntity
  8
0
 62
    28
100
AcDbFaceRecord
 10
0.0
 20
0.0
 30
0.0
 70
   128
 71
   424
 72
   413
 73
   423
  0
VERTEX
  5
394
330
5A
100
AcDbEntity
  8
0
 62
    28
100
AcDbFaceRecord
 10
0.0
 20
0.0
 30
0.0
 70
   128
 71
   423
 72
   413
 73
   414
  0
VERTEX
  5
395
330
5A
100
AcDbEntity
  8
0
 62
    28
100
AcDbFaceRecord
 10
0.0
 20
0.0
 30
0.0
 70
   128
 71
   423
 72
   414
 73
   422
  0
VERTEX
  5
396
330
5A
100
AcDbEntity
  8
0
 62
    28
100
AcDbFaceRecord
 10
0.0
 20
0.0
 30
0.0
 70
   128
 71
   422
 72
   414
 73
   415
  0
VERTEX
  5
397
330
5A
100
AcDbEntity
  8
0
 62
    28
100
AcDbFaceRecord
 10
0.0
 20
0.0
 30
0.0
 70
   128
 71
   422
 72
   415
 73
   421
  0
VERTEX
  5
398
330
5A
100
AcDbEntity
  8
0
 62
    28
100
AcDbFaceRecord
 10
0.0
 20
0.0
 30
0.0
 70
   128
 71
   421
 72
   415
 73
   416
  0
VERTEX
  5
399
330
5A
100
AcDbEntity
  8
0
 62
    28
100
AcDbFaceRecord
 10
0.0
 20
0.0
 30
0.0
 70
   128
 71
   421
 72
   416
 73
   420
  0
VERTEX
  5
39A
330
5A
100
AcDbEntity
  8
0
 62
    28
100
AcDbFaceRecord
 10
0.0
 20
0.0
 30
0.0
 70
   128
 71
   420
 72
   416
 73
   417
  0
VERTEX
  5
39B
330
5A
100
AcDbEntity
  8
0
 62
    28
100
AcDbFaceRecord
 10
0.0
 20
0.0
 30
0.0
 70
   128
 71
   420
 72
   417
 73
   419
  0
VERTEX
  5
39C
330
5A
100
AcDbEntity
  8
0
 62
    28
100
AcDbFaceRecord
 10
0.0
 20
0.0
 30
0.0
 70
   128
 71
   419
 72
   417
 73
   418
  0
SEQEND
  5
39D
330
5A
100
AcDbEntity
  8
0
 62
    28
  0
INSERT
  5
39F
330
56
100
AcDbEntity
  8
0
100
AcDbBlockReference
  2
*U8
 10
0.0
 20
0.0
 30
0.0
  0
ENDBLK
  5
59
330
56
100
AcDbEntity
  8
0
100
AcDbBlockEnd
  0
BLOCK
  5
3A0
330
39E
100
AcDbEntity
  8
0
100
AcDbBlockBegin
  2
*U8
 70
     1
 10
0.0
 20
0.0
 30
0.0
  3
*U8
  1

  0
INSERT
  5
3A2
330
39E
100
AcDbEntity
  8
0
100
AcDbBlockReference
  2
_STYLE_LIBRARY__DWFW3D_PUB
 10
0.0
 20
0.0
 30
0.0
  0
POLYLINE
  5
3C5
330
39E
100
AcDbEntity
  8
0
 62
    18
100
AcDb3dPolyline
 66
     1
 10
0.0
 20
0.0
 30
0.0
 70
     8
  0
VERTEX
  5
3C6
330
3C5
100
AcDbEntity
  8
0
 62
    18
100
AcDbVertex
100
AcDb3dPolylineVertex
 10
0.3333333432674408
 20
0.25
 30
-0.25
 70
    32
  0
VERTEX
  5
3C7
330
3C5
100
AcDbEntity
  8
0
 62
    18
100
AcDbVertex
100
AcDb3dPolylineVertex
 10
0.3333333432674408
 20
0.25
 30
0.25
 70
    32
  0
SEQEND
  5
3C8
330
3C5
100
AcDbEntity
  8
0
 62
    18
  0
POLYLINE
  5
3C9
330
39E
100
AcDbEntity
  8
0
 62
    18
100
AcDb3dPolyline
 66
     1
 10
0.0
 20
0.0
 30
0.0
 70
     8
  0
VERTEX
  5
3CA
330
3C9
100
AcDbEntity
  8
0
 62
    18
100
AcDbVertex
100
AcDb3dPolylineVertex
 10
0.3333333432674408
 20
0.25
 30
0.25
 70
    32
  0
VERTEX
  5
3CB
330
3C9
100
AcDbEntity
  8
0
 62
    18
100
AcDbVertex
100
AcDb3dPolylineVertex
 10
0.3333333432674408
 20
-0.0000000000000098
 30
0.25
 70
    32
  0
SEQEND
  5
3CC
330
3C9
100
AcDbEntity
  8
0
 62
    18
  0
POLYLINE
  5
3CD
330
39E
100
AcDbEntity
  8
0
 62
    18
100
AcDb3dPolyline
 66
     1
 10
0.0
 20
0.0
 30
0.0
 70
     8
  0
VERTEX
  5
3CE
330
3CD
100
AcDbEntity
  8
0
 62
    18
100
AcDbVertex
100
AcDb3dPolylineVertex
 10
0.3333333432674408
 20
-0.0000000000000098
 30
0.25
 70
    32
  0
VERTEX
  5
3CF
330
3CD
100
AcDbEntity
  8
0
 62
    18
100
AcDbVertex
100
AcDb3dPolylineVertex
 10
0.3333333432674408
 20
-0.0000000000000098
 30
-0.2916666567325592
 70
    32
  0
SEQEND
  5
3D0
330
3CD
100
AcDbEntity
  8
0
 62
    18
  0
POLYLINE
  5
3D1
330
39E
100
AcDbEntity
  8
0
 62
    18
100
AcDb3dPolyline
 66
     1
 10
0.0
 20
0.0
 30
0.0
 70
     8
  0
VERTEX
  5
3D2
330
3D1
100
AcDbEntity
  8
0
 62
    18
100
AcDbVertex
100
AcDb3dPolylineVertex
 10
0.3333333432674408
 20
-0.0000000000000098
 30
-0.2916666567325592
 70
    32
  0
VERTEX
  5
3D3
330
3D1
100
AcDbEntity
  8
0
 62
    18
100
AcDbVertex
100
AcDb3dPolylineVertex
 10
0.3333333432674408
 20
0.0104166669771075
 30
-0.2916666567325592
 70
    32
  0
SEQEND
  5
3D4
330
3D1
100
AcDbEntity
  8
0
 62
    18
  0
POLYLINE
  5
3D5
330
39E
100
AcDbEntity
  8
0
 62
    18
100
AcDb3dPolyline
 66
     1
 10
0.0
 20
0.0
 30
0.0
 70
     8
  0
VERTEX
  5
3D6
330
3D5
100
AcDbEntity
  8
0
 62
    18
100
AcDbVertex
100
AcDb3dPolylineVertex
 10
0.3333333432674408
 20
0.0104166669771075
 30
-0.2916666567325592
 70
    32
  0
VERTEX
  5
3D7
330
3D5
100
AcDbEntity
  8
0
 62
    18
100
AcDbVertex
100
AcDb3dPolylineVertex
 10
0.3333333432674408
 20
0.0104166669771075
 30
-0.25
 70
    32
  0
SEQEND
  5
3D8
330
3D5
100
AcDbEntity
  8
0
 62
    18
  0
POLYLINE
  5
3D9
330
39E
100
AcDbEntity
  8
0
 62
    18
100
AcDb3dPolyline
 66
     1
 10
0.0
 20
0.0
 30
0.0
 70
     8
  0
VERTEX
  5
3DA
330
3D9
100
AcDbEntity
  8
0
 62
    18
100
AcDbVertex
100
AcDb3dPolylineVertex
 10
0.3333333432674408
 20
0.0104166669771075
 30
-0.25
 70
    32
  0
VERTEX
  5
3DB
330
3D9
100
AcDbEntity
  8
0
 62
    18
100
AcDbVertex
100
AcDb3dPolylineVertex
 10
0.3333333432674408
 20
0.25
 30
-0.25
 70
    32
  0
SEQEND
  5
3DC
330
3D9
100
AcDbEntity
  8
0
 62
    18
  0
POLYLINE
  5
3DD
330
39E
100
AcDbEntity
  8
0
 62
    18
100
AcDb3dPolyline
 66
     1
 10
0.0
 20
0.0
 30
0.0
 70
     8
  0
VERTEX
  5
3DE
330
3DD
100
AcDbEntity
  8
0
 62
    18
100
AcDbVertex
100
AcDb3dPolylineVertex
 10
-0.3333333432674408
 20
0.25
 30
-0.25
 70
    32
  0
VERTEX
  5
3DF
330
3DD
100
AcDbEntity
  8
0
 62
    18
100
AcDbVertex
100
AcDb3dPolylineVertex
 10
-0.3333333432674408
 20
0.0104166669771075
 30
-0.25
 70
    32
  0
SEQEND
  5
3E0
330
3DD
100
AcDbEntity
  8
0
 62
    18
  0
POLYLINE
  5
3E1
330
39E
100
AcDbEntity
  8
0
 62
    18
100
AcDb3dPolyline
 66
     1
 10
0.0
 20
0.0
 30
0.0
 70
     8
  0
VERTEX
  5
3E2
330
3E1
100
AcDbEntity
  8
0
 62
    18
100
AcDbVertex
100
AcDb3dPolylineVertex
 10
-0.3333333432674408
 20
0.0104166669771075
 30
-0.25
 70
    32
  0
VERTEX
  5
3E3
330
3E1
100
AcDbEntity
  8
0
 62
    18
100
AcDbVertex
100
AcDb3dPolylineVertex
 10
-0.3333333432674408
 20
0.0104166669771075
 30
-0.2916666567325592
 70
    32
  0
SEQEND
  5
3E4
330
3E1
100
AcDbEntity
  8
0
 62
    18
  0
POLYLINE
  5
3E5
330
39E
100
AcDbEntity
  8
0
 62
    18
100
AcDb3dPolyline
 66
     1
 10
0.0
 20
0.0
 30
0.0
 70
     8
  0
VERTEX
  5
3E6
330
3E5
100
AcDbEntity
  8
0
 62
    18
100
AcDbVertex
100
AcDb3dPolylineVertex
 10
-0.3333333432674408
 20
0.0104166669771075
 30
-0.2916666567325592
 70
    32
  0
VERTEX
  5
3E7
330
3E5
100
AcDbEntity
  8
0
 62
    18
100
AcDbVertex
100
AcDb3dPolylineVertex
 10
-0.3333333432674408
 20
-0.0000000000000029
 30
-0.2916666567325592
 70
    32
  0
SEQEND
  5
3E8
330
3E5
100
AcDbEntity
  8
0
 62
    18
  0
POLYLINE
  5
3E9
330
39E
100
AcDbEntity
  8
0
 62
    18
100
AcDb3dPolyline
 66
     1
 10
0.0
 20
0.0
 30
0.0
 70
     8
  0
VERTEX
  5
3EA
330
3E9
100
AcDbEntity
  8
0
 62
    18
100
AcDbVertex
100
AcDb3dPolylineVertex
 10
-0.3333333432674408
 20
-0.0000000000000029
 30
-0.2916666567325592
 70
    32
  0
VERTEX
  5
3EB
330
3E9
100
AcDbEntity
  8
0
 62
    18
100
AcDbVertex
100
AcDb3dPolylineVertex
 10
-0.3333333432674408
 20
-0.0000000000000029
 30
0.25
 70
    32
  0
SEQEND
  5
3EC
330
3E9
100
AcDbEntity
  8
0
 62
    18
  0
POLYLINE
  5
3ED
330
39E
100
AcDbEntity
  8
0
 62
    18
100
AcDb3dPolyline
 66
     1
 10
0.0
 20
0.0
 30
0.0
 70
     8
  0
VERTEX
  5
3EE
330
3ED
100
AcDbEntity
  8
0
 62
    18
100
AcDbVertex
100
AcDb3dPolylineVertex
 10
-0.3333333432674408
 20
-0.0000000000000029
 30
0.25
 70
    32
  0
VERTEX
  5
3EF
330
3ED
100
AcDbEntity
  8
0
 62
    18
100
AcDbVertex
100
AcDb3dPolylineVertex
 10
-0.3333333432674408
 20
0.25
 30
0.25
 70
    32
  0
SEQEND
  5
3F0
330
3ED
100
AcDbEntity
  8
0
 62
    18
  0
POLYLINE
  5
3F1
330
39E
100
AcDbEntity
  8
0
 62
    18
100
AcDb3dPolyline
 66
     1
 10
0.0
 20
0.0
 30
0.0
 70
     8
  0
VERTEX
  5
3F2
330
3F1
100
AcDbEntity
  8
0
 62
    18
100
AcDbVertex
100
AcDb3dPolylineVertex
 10
-0.3333333432674408
 20
0.25
 30
0.25
 70
    32
  0
VERTEX
  5
3F3
330
3F1
100
AcDbEntity
  8
0
 62
    18
100
AcDbVertex
100
AcDb3dPolylineVertex
 10
-0.3333333432674408
 20
0.25
 30
-0.25
 70
    32
  0
SEQEND
  5
3F4
330
3F1
100
AcDbEntity
  8
0
 62
    18
  0
POLYLINE
  5
3F5
330
39E
100
AcDbEntity
  8
0
 62
    18
100
AcDb3dPolyline
 66
     1
 10
0.0
 20
0.0
 30
0.0
 70
     8
  0
VERTEX
  5
3F6
330
3F5
100
AcDbEntity
  8
0
 62
    18
100
AcDbVertex
100
AcDb3dPolylineVertex
 10
0.3333333432674408
 20
0.25
 30
-0.25
 70
    32
  0
VERTEX
  5
3F7
330
3F5
100
AcDbEntity
  8
0
 62
    18
100
AcDbVertex
100
AcDb3dPolylineVertex
 10
-0.3333333432674408
 20
0.25
 30
-0.25
 70
    32
  0
SEQEND
  5
3F8
330
3F5
100
AcDbEntity
  8
0
 62
    18
  0
ARC
  5
3F9
330
39E
100
AcDbEntity
  8
0
 62
    18
100
AcDbCircle
 10
-0.2291666679084301
 20
0.1458333320915699
 30
0.25
 40
0.0312499962747099
210
0.0
220
1.0
230
0.0
100
AcDbArc
 50
269.99999316981
 51
90.00000683018999
  0
ARC
  5
3FA
330
39E
100
AcDbEntity
  8
0
 62
    18
100
AcDbCircle
 10
-0.2291666604578477
 20
0.1458333320915699
 30
0.25
 40
0.0312499962747117
210
0.0
220
1.0
230
0.0
100
AcDbArc
 50
90.0000204905732
 51
269.9999795094268
  0
ARC
  5
3FB
330
39E
100
AcDbEntity
  8
0
 62
    18
100
AcDbCircle
 10
0.2291666604578477
 20
0.1458333320915699
 30
0.25
 40
0.0312499962747117
210
0.0
220
1.0
230
0.0
100
AcDbArc
 50
270.0000204905732
 51
89.9999795094268
  0
ARC
  5
3FC
330
39E
100
AcDbEntity
  8
0
 62
    18
100
AcDbCircle
 10
0.2291666679084301
 20
0.1458333320915699
 30
0.25
 40
0.0312499962747099
210
0.0
220
1.0
230
0.0
100
AcDbArc
 50
89.99999316981001
 51
270.00000683019
  0
POLYLINE
  5
3FD
330
39E
100
AcDbEntity
  8
0
 62
    18
100
AcDb3dPolyline
 66
     1
 10
0.0
 20
0.0
 30
0.0
 70
     8
  0
VERTEX
  5
3FE
330
3FD
100
AcDbEntity
  8
0
 62
    18
100
AcDbVertex
100
AcDb3dPolylineVertex
 10
-0.3333333432674408
 20
0.25
 30
0.25
 70
    32
  0
VERTEX
  5
3FF
330
3FD
100
AcDbEntity
  8
0
 62
    18
100
AcDbVertex
100
AcDb3dPolylineVertex
 10
0.3333333432674408
 20
0.25
 30
0.25
 70
    32
  0
SEQEND
  5
400
330
3FD
100
AcDbEntity
  8
0
 62
    18
  0
POLYLINE
  5
401
330
39E
100
AcDbEntity
  8
0
 62
    18
100
AcDb3dPolyline
 66
     1
 10
0.0
 20
0.0
 30
0.0
 70
     8
  0
VERTEX
  5
402
330
401
100
AcDbEntity
  8
0
 62
    18
100
AcDbVertex
100
AcDb3dPolylineVertex
 10
-0.3333333432674408
 20
-0.0000000000000029
 30
0.25
 70
    32
  0
VERTEX
  5
403
330
401
100
AcDbEntity
  8
0
 62
    18
100
AcDbVertex
100
AcDb3dPolylineVertex
 10
0.3333333432674408
 20
-0.0000000000000098
 30
0.25
 70
    32
  0
SEQEND
  5
404
330
401
100
AcDbEntity
  8
0
 62
    18
  0
POLYLINE
  5
405
330
39E
100
AcDbEntity
  8
0
 62
    18
100
AcDb3dPolyline
 66
     1
 10
0.0
 20
0.0
 30
0.0
 70
     8
  0
VERTEX
  5
406
330
405
100
AcDbEntity
  8
0
 62
    18
100
AcDbVertex
100
AcDb3dPolylineVertex
 10
-0.3333333432674408
 20
-0.0000000000000029
 30
-0.2916666567325592
 70
    32
  0
VERTEX
  5
407
330
405
100
AcDbEntity
  8
0
 62
    18
100
AcDbVertex
100
AcDb3dPolylineVertex
 10
0.3333333432674408
 20
-0.0000000000000098
 30
-0.2916666567325592
 70
    32
  0
SEQEND
  5
408
330
405
100
AcDbEntity
  8
0
 62
    18
  0
POLYLINE
  5
409
330
39E
100
AcDbEntity
  8
0
 62
    18
100
AcDb3dPolyline
 66
     1
 10
0.0
 20
0.0
 30
0.0
 70
     8
  0
VERTEX
  5
40A
330
409
100
AcDbEntity
  8
0
 62
    18
100
AcDbVertex
100
AcDb3dPolylineVertex
 10
-0.3333333432674408
 20
0.0104166669771075
 30
-0.2916666567325592
 70
    32
  0
VERTEX
  5
40B
330
409
100
AcDbEntity
  8
0
 62
    18
100
AcDbVertex
100
AcDb3dPolylineVertex
 10
0.3333333432674408
 20
0.0104166669771075
 30
-0.2916666567325592
 70
    32
  0
SEQEND
  5
40C
330
409
100
AcDbEntity
  8
0
 62
    18
  0
POLYLINE
  5
40D
330
39E
100
AcDbEntity
  8
0
 62
    18
100
AcDb3dPolyline
 66
     1
 10
0.0
 20
0.0
 30
0.0
 70
     8
  0
VERTEX
  5
40E
330
40D
100
AcDbEntity
  8
0
 62
    18
100
AcDbVertex
100
AcDb3dPolylineVertex
 10
-0.3333333432674408
 20
0.0104166669771075
 30
-0.25
 70
    32
  0
VERTEX
  5
40F
330
40D
100
AcDbEntity
  8
0
 62
    18
100
AcDbVertex
100
AcDb3dPolylineVertex
 10
0.3333333432674408
 20
0.0104166669771075
 30
-0.25
 70
    32
  0
SEQEND
  5
410
330
40D
100
AcDbEntity
  8
0
 62
    18
  0
ARC
  5
411
330
39E
100
AcDbEntity
  8
0
 62
    18
100
AcDbCircle
 10
0.2631392292678326
 20
0.0520833320915699
 30
0.25
 40
0.0208333320915729
210
0.0
220
0.0
230
-1.0
100
AcDbArc
 50
269.9999692641551
 51
90.00003073584486
  0
ARC
  5
412
330
39E
100
AcDbEntity
  8
0
 62
    18
100
AcDbCircle
 10
0.2631392218172554
 20
0.0520833320915699
 30
0.25
 40
0.0208333320915702
210
0.0
220
0.0
230
-1.0
100
AcDbArc
 50
90.00001024528528
 51
269.9999897547147
  0
ARC
  5
413
330
39E
100
AcDbEntity
  8
0
 62
    18
100
AcDbCircle
 10
0.2006392292678353
 20
0.0520833320915699
 30
0.25
 40
0.0208333320915702
210
0.0
220
0.0
230
-1.0
100
AcDbArc
 50
270.0000102452853
 51
89.99998975471472
  0
ARC
  5
414
330
39E
100
AcDbEntity
  8
0
 62
    18
100
AcDbCircle
 10
0.200639221817258
 20
0.0520833320915699
 30
0.25
 40
0.0208333320915729
210
0.0
220
0.0
230
-1.0
100
AcDbArc
 50
89.99996926415514
 51
270.0000307358449
  0
ARC
  5
415
330
39E
100
AcDbEntity
  8
0
 62
    18
100
AcDbCircle
 10
0.2291666679084301
 20
0.1458333320915699
 30
-0.3333333432674408
 40
0.0312499962747099
210
0.0
220
-1.0
230
0.0
100
AcDbArc
 50
89.99999316981001
 51
270.00000683019
  0
ARC
  5
416
330
39E
100
AcDbEntity
  8
0
 62
    18
100
AcDbCircle
 10
0.2291666604578477
 20
0.1458333320915699
 30
-0.3333333432674408
 40
0.0312499962747117
210
0.0
220
-1.0
230
0.0
100
AcDbArc
 50
270.0000204905732
 51
89.9999795094268
  0
POLYLINE
  5
417
330
39E
100
AcDbEntity
  8
0
 62
    18
100
AcDb3dPolyline
 66
     1
 10
0.0
 20
0.0
 30
0.0
 70
     8
  0
VERTEX
  5
418
330
417
100
AcDbEntity
  8
0
 62
    18
100
AcDbVertex
100
AcDb3dPolylineVertex
 10
0.2291666716337204
 20
0.3333333432674408
 30
0.1145833358168602
 70
    32
  0
VERTEX
  5
419
330
417
100
AcDbEntity
  8
0
 62
    18
100
AcDbVertex
100
AcDb3dPolylineVertex
 10
0.2291666716337204
 20
0.25
 30
0.1145833358168602
 70
    32
  0
SEQEND
  5
41A
330
417
100
AcDbEntity
  8
0
 62
    18
  0
POLYLINE
  5
41B
330
39E
100
AcDbEntity
  8
0
 62
    18
100
AcDb3dPolyline
 66
     1
 10
0.0
 20
0.0
 30
0.0
 70
     8
  0
VERTEX
  5
41C
330
41B
100
AcDbEntity
  8
0
 62
    18
100
AcDbVertex
100
AcDb3dPolylineVertex
 10
0.2291666716337204
 20
0.25
 30
0.1770833283662796
 70
    32
  0
VERTEX
  5
41D
330
41B
100
AcDbEntity
  8
0
 62
    18
100
AcDbVertex
100
AcDb3dPolylineVertex
 10
0.2291666716337204
 20
0.3333333432674408
 30
0.1770833283662796
 70
    32
  0
SEQEND
  5
41E
330
41B
100
AcDbEntity
  8
0
 62
    18
  0
ARC
  5
41F
330
39E
100
AcDbEntity
  8
0
 62
    18
100
AcDbCircle
 10
-0.2291666604578477
 20
0.1458333320915699
 30
-0.3333333432674408
 40
0.0312499962747117
210
0.0
220
-1.0
230
0.0
100
AcDbArc
 50
90.0000204905732
 51
269.9999795094268
  0
ARC
  5
420
330
39E
100
AcDbEntity
  8
0
 62
    18
100
AcDbCircle
 10
-0.2291666679084301
 20
0.1458333320915699
 30
-0.3333333432674408
 40
0.0312499962747099
210
0.0
220
-1.0
230
0.0
100
AcDbArc
 50
269.99999316981
 51
90.00000683018999
  0
POLYLINE
  5
421
330
39E
100
AcDbEntity
  8
0
 62
    18
100
AcDb3dPolyline
 66
     1
 10
0.0
 20
0.0
 30
0.0
 70
     8
  0
VERTEX
  5
422
330
421
100
AcDbEntity
  8
0
 62
    18
100
AcDbVertex
100
AcDb3dPolylineVertex
 10
-0.2291666716337204
 20
0.3333333432674408
 30
0.1145833358168602
 70
    32
  0
VERTEX
  5
423
330
421
100
AcDbEntity
  8
0
 62
    18
100
AcDbVertex
100
AcDb3dPolylineVertex
 10
-0.2291666716337204
 20
0.25
 30
0.1145833358168602
 70
    32
  0
SEQEND
  5
424
330
421
100
AcDbEntity
  8
0
 62
    18
  0
POLYLINE
  5
425
330
39E
100
AcDbEntity
  8
0
 62
    18
100
AcDb3dPolyline
 66
     1
 10
0.0
 20
0.0
 30
0.0
 70
     8
  0
VERTEX
  5
426
330
425
100
AcDbEntity
  8
0
 62
    18
100
AcDbVertex
100
AcDb3dPolylineVertex
 10
-0.2291666716337204
 20
0.25
 30
0.1770833283662796
 70
    32
  0
VERTEX
  5
427
330
425
100
AcDbEntity
  8
0
 62
    18
100
AcDbVertex
100
AcDb3dPolylineVertex
 10
-0.2291666716337204
 20
0.3333333432674408
 30
0.1770833283662796
 70
    32
  0
SEQEND
  5
428
330
425
100
AcDbEntity
  8
0
 62
    18
  0
ARC
  5
429
330
39E
100
AcDbEntity
  8
0
 62
    18
100
AcDbCircle
 10
-0.2631392292678326
 20
0.0520833320915699
 30
-0.2916666567325592
 40
0.0208333320915729
100
AcDbArc
 50
89.99996926415514
 51
270.0000307358449
  0
ARC
  5
42A
330
39E
100
AcDbEntity
  8
0
 62
    18
100
AcDbCircle
 10
-0.2631392218172554
 20
0.0520833320915699
 30
-0.2916666567325592
 40
0.0208333320915702
100
AcDbArc
 50
270.0000102452853
 51
89.99998975471472
  0
POLYLINE
  5
42B
330
39E
100
AcDbEntity
  8
0
 62
    18
100
AcDb3dPolyline
 66
     1
 10
0.0
 20
0.0
 30
0.0
 70
     8
  0
VERTEX
  5
42C
330
42B
100
AcDbEntity
  8
0
 62
    18
100
AcDbVertex
100
AcDb3dPolylineVertex
 10
-0.2631392180919647
 20
0.03125
 30
-0.2916666567325592
 70
    32
  0
VERTEX
  5
42D
330
42B
100
AcDbEntity
  8
0
 62
    18
100
AcDbVertex
100
AcDb3dPolylineVertex
 10
-0.2631392180919647
 20
0.03125
 30
-0.25
 70
    32
  0
SEQEND
  5
42E
330
42B
100
AcDbEntity
  8
0
 62
    18
  0
POLYLINE
  5
42F
330
39E
100
AcDbEntity
  8
0
 62
    18
100
AcDb3dPolyline
 66
     1
 10
0.0
 20
0.0
 30
0.0
 70
     8
  0
VERTEX
  5
430
330
42F
100
AcDbEntity
  8
0
 62
    18
100
AcDbVertex
100
AcDb3dPolylineVertex
 10
-0.2631392180919647
 20
0.0729166641831398
 30
-0.25
 70
    32
  0
VERTEX
  5
431
330
42F
100
AcDbEntity
  8
0
 62
    18
100
AcDbVertex
100
AcDb3dPolylineVertex
 10
-0.2631392180919647
 20
0.0729166641831398
 30
-0.2916666567325592
 70
    32
  0
SEQEND
  5
432
330
42F
100
AcDbEntity
  8
0
 62
    18
  0
ARC
  5
433
330
39E
100
AcDbEntity
  8
0
 62
    18
100
AcDbCircle
 10
-0.2006392292678353
 20
0.0520833320915699
 30
-0.2916666567325592
 40
0.0208333320915702
100
AcDbArc
 50
90.00001024528528
 51
269.9999897547147
  0
ARC
  5
434
330
39E
100
AcDbEntity
  8
0
 62
    18
100
AcDbCircle
 10
-0.200639221817258
 20
0.0520833320915699
 30
-0.2916666567325592
 40
0.0208333320915729
100
AcDbArc
 50
269.9999692641551
 51
90.00003073584486
  0
POLYLINE
  5
435
330
39E
100
AcDbEntity
  8
0
 62
    18
100
AcDb3dPolyline
 66
     1
 10
0.0
 20
0.0
 30
0.0
 70
     8
  0
VERTEX
  5
436
330
435
100
AcDbEntity
  8
0
 62
    18
100
AcDbVertex
100
AcDb3dPolylineVertex
 10
-0.2006392329931259
 20
0.03125
 30
-0.2916666567325592
 70
    32
  0
VERTEX
  5
437
330
435
100
AcDbEntity
  8
0
 62
    18
100
AcDbVertex
100
AcDb3dPolylineVertex
 10
-0.2006392329931259
 20
0.03125
 30
-0.25
 70
    32
  0
SEQEND
  5
438
330
435
100
AcDbEntity
  8
0
 62
    18
  0
POLYLINE
  5
439
330
39E
100
AcDbEntity
  8
0
 62
    18
100
AcDb3dPolyline
 66
     1
 10
0.0
 20
0.0
 30
0.0
 70
     8
  0
VERTEX
  5
43A
330
439
100
AcDbEntity
  8
0
 62
    18
100
AcDbVertex
100
AcDb3dPolylineVertex
 10
-0.2006392329931259
 20
0.0729166641831398
 30
-0.25
 70
    32
  0
VERTEX
  5
43B
330
439
100
AcDbEntity
  8
0
 62
    18
100
AcDbVertex
100
AcDb3dPolylineVertex
 10
-0.2006392329931259
 20
0.0729166641831398
 30
-0.2916666567325592
 70
    32
  0
SEQEND
  5
43C
330
439
100
AcDbEntity
  8
0
 62
    18
  0
ENDBLK
  5
3A1
330
39E
100
AcDbEntity
  8
0
100
AcDbBlockEnd
  0
ENDSEC
  0
SECTION
  2
ENTITIES
  0
INSERT
  5
43
330
1F
100
AcDbEntity
  8
0
100
AcDbBlockReference
  2
*U2
 10
0.0
 20
0.0
 30
0.0
  0
ENDSEC
  0
SECTION
  2
OBJECTS
  0
DICTIONARY
  5
C
330
0
100
AcDbDictionary
  3
ACAD_GROUP
350
D
  3
ACAD_LAYOUT
350
1A
  3
ACAD_MATERIAL
350
3B
  3
ACAD_MLEADERSTYLE
350
45F
  3
ACAD_MLINESTYLE
350
17
  3
ACAD_PLOTSETTINGS
350
19
  3
ACAD_SCALELIST
350
3A3
  3
ACAD_VISUALSTYLE
350
2A
  3
ACDBHEADERROUNDTRIPXREC
350
43D
  3
ACDBVARIABLEDICTIONARY
350
45D
  0
DICTIONARY
  5
D
102
{ACAD_REACTORS
330
C
102
}
330
C
100
AcDbDictionary
  0
DICTIONARY
  5
1A
102
{ACAD_REACTORS
330
C
102
}
330
C
100
AcDbDictionary
  0
DICTIONARY
  5
3B
102
{ACAD_REACTORS
330
C
102
}
330
C
100
AcDbDictionary
  3
BYBLOCK
350
3D
  3
BYLAYER
350
3C
  3
GLOBAL
350
3E
  0
DICTIONARY
  5
45F
102
{ACAD_REACTORS
330
C
102
}
330
C
100
AcDbDictionary
  0
DICTIONARY
  5
17
102
{ACAD_REACTORS
330
C
102
}
330
C
100
AcDbDictionary
  3
STANDARD
350
18
  0
DICTIONARY
  5
19
102
{ACAD_REACTORS
330
C
102
}
330
C
100
AcDbDictionary
  0
DICTIONARY
  5
3A3
102
{ACAD_REACTORS
330
C
102
}
330
C
100
AcDbDictionary
  3
A0
350
3A4
  3
A1
350
3A5
  3
A2
350
3A6
  3
A3
350
3A7
  3
A4
350
3A8
  3
A5
350
3A9
  3
A6
350
3AA
  3
A7
350
3AB
  3
A8
350
3AC
  3
A9
350
3AD
  3
B0
350
3AE
  3
B1
350
3AF
  3
B2
350
3B0
  3
B3
350
3B1
  3
B4
350
3B2
  3
B5
350
3B3
  3
B6
350
3B4
  3
B7
350
3B5
  3
B8
350
3B6
  3
B9
350
3B7
  3
C0
350
3B8
  3
C1
350
3B9
  3
C2
350
3BA
  3
C3
350
3BB
  3
C4
350
3BC
  3
C5
350
3BD
  3
C6
350
3BE
  3
C7
350
3BF
  3
C8
350
3C0
  3
C9
350
3C1
  3
D0
350
3C2
  3
D1
350
3C3
  3
D2
350
3C4
  0
DICTIONARY
  5
2A
102
{ACAD_REACTORS
330
C
102
}
330
C
100
AcDbDictionary
  3
2DWIREFRAME
350
2F
  3
3D_HIDDEN
350
31
  3
3DWIREFRAME
350
30
  3
BASIC
350
32
  3
BRIGHTEN
350
36
  3
COLORCHANGE
350
3A
  3
CONCEPTUAL
350
34
  3
DIM
350
35
  3
FACEPATTERN
350
39
  3
FLAT
350
2B
  3
FLATWITHEDGES
350
2C
  3
GOURAUD
350
2D
  3
GOURAUDWITHEDGES
350
2E
  3
LINEPATTERN
350
38
  3
REALISTIC
350
33
  3
THICKEN
350
37
  0
DICTIONARY
  5
43D
102
{ACAD_REACTORS
330
C
102
}
330
C
100
AcDbDictionary
  3
CEPSNTYPE
350
446
  3
DIMSTYLEDATA
350
45C
  3
FINGERPRINTGUID
350
447
  3
HYPERLINKBASE
350
440
  3
INSUNITS
350
445
  3
LAYOUTDICT
350
442
  3
LWETCUNION
350
444
  3
PLOTSETDICT
350
443
  3
PSVPSCALE
350
449
  3
PUCSBASE
350
44C
  3
PUCSORGBACK
350
452
  3
PUCSORGBOTTOM
350
44E
  3
PUCSORGFRONT
350
451
  3
PUCSORGLEFT
350
44F
  3
PUCSORGRIGHT
350
450
  3
PUCSORGTOP
350
44D
  3
PUCSORTHOREF
350
44A
  3
PUCSORTHOVIEW
350
44B
  3
STYLESHEET
350
441
  3
TSTACKALIGN
350
43E
  3
TSTACKSIZE
350
43F
  3
UCSBASE
350
455
  3
UCSORGBACK
350
45B
  3
UCSORGBOTTOM
350
457
  3
UCSORGFRONT
350
45A
  3
UCSORGLEFT
350
458
  3
UCSORGRIGHT
350
459
  3
UCSORGTOP
350
456
  3
UCSORTHOREF
350
453
  3
UCSORTHOVIEW
350
454
  3
VERSIONGUID
350
448
  0
DICTIONARY
  5
45D
102
{ACAD_REACTORS
330
C
102
}
330
C
100
AcDbDictionary
  3
CANNOSCALE
350
460
  3
DIMASSOC
350
461
  3
HIDETEXT
350
462
  0
MATERIAL
  5
3D
102
{ACAD_REACTORS
330
3B
102
}
102
{ACAD_XDICTIONARY
360
465
102
}
330
3B
100
AcDbMaterial
  1
ByBlock
  0
MATERIAL
  5
3C
102
{ACAD_REACTORS
330
3B
102
}
102
{ACAD_XDICTIONARY
360
463
102
}
330
3B
100
AcDbMaterial
  1
ByLayer
  0
MATERIAL
  5
3E
102
{ACAD_REACTORS
330
3B
102
}
102
{ACAD_XDICTIONARY
360
467
102
}
330
3B
100
AcDbMaterial
  1
Global
  0
MLINESTYLE
  5
18
102
{ACAD_REACTORS
330
17
102
}
330
17
100
AcDbMlineStyle
  2
Standard
 70
     0
  3

 62
   256
 51
90.0
 52
90.0
 71
     2
 49
0.5
 62
   256
  6
BYLAYER
 49
-0.5
 62
   256
  6
BYLAYER
  0
ACAD_PROXY_OBJECT
  5
3A4
102
{ACAD_REACTORS
330
3A3
102
}
330
3A3
100
AcDbProxyObject
 90
      499
 91
      503
 93
       41
310
903313A31580
  0
ACAD_PROXY_OBJECT
  5
3A5
102
{ACAD_REACTORS
330
3A3
102
}
330
3A3
100
AcDbProxyObject
 90
      499
 91
      503
 93
      105
310
903313A324000000000000004000
  0
ACAD_PROXY_OBJECT
  5
3A6
102
{ACAD_REACTORS
330
3A3
102
}
330
3A3
100
AcDbProxyObject
 90
      499
 91
      503
 93
      105
310
903313A344000000000000104000
  0
ACAD_PROXY_OBJECT
  5
3A7
102
{ACAD_REACTORS
330
3A3
102
}
330
3A3
100
AcDbProxyObject
 90
      499
 91
      503
 93
      105
310
903313A354000000000000144000
  0
ACAD_PROXY_OBJECT
  5
3A8
102
{ACAD_REACTORS
330
3A3
102
}
330
3A3
100
AcDbProxyObject
 90
      499
 91
      503
 93
      105
310
903313A384000000000000204000
  0
ACAD_PROXY_OBJECT
  5
3A9
102
{ACAD_REACTORS
330
3A3
102
}
330
3A3
100
AcDbProxyObject
 90
      499
 91
      503
 93
      113
310
904313A31304000000000000244000
  0
ACAD_PROXY_OBJECT
  5
3AA
102
{ACAD_REACTORS
330
3A3
102
}
330
3A3
100
AcDbProxyObject
 90
      499
 91
      503
 93
      113
310
904313A31364000000000000304000
  0
ACAD_PROXY_OBJECT
  5
3AB
102
{ACAD_REACTORS
330
3A3
102
}
330
3A3
100
AcDbProxyObject
 90
      499
 91
      503
 93
      113
310
904313A32304000000000000344000
  0
ACAD_PROXY_OBJECT
  5
3AC
102
{ACAD_REACTORS
330
3A3
102
}
330
3A3
100
AcDbProxyObject
 90
      499
 91
      503
 93
      113
310
904313A333040000000000003E4000
  0
ACAD_PROXY_OBJECT
  5
3AD
102
{ACAD_REACTORS
330
3A3
102
}
330
3A3
100
AcDbProxyObject
 90
      499
 91
      503
 93
      113
310
904313A34304000000000000444000
  0
ACAD_PROXY_OBJECT
  5
3AE
102
{ACAD_REACTORS
330
3A3
102
}
330
3A3
100
AcDbProxyObject
 90
      499
 91
      503
 93
      113
310
904313A35304000000000000494000
  0
ACAD_PROXY_OBJECT
  5
3AF
102
{ACAD_REACTORS
330
3A3
102
}
330
3A3
100
AcDbProxyObject
 90
      499
 91
      503
 93
      121
310
905313A3130304000000000000594000
  0
ACAD_PROXY_OBJECT
  5
3B0
102
{ACAD_REACTORS
330
3A3
102
}
330
3A3
100
AcDbProxyObject
 90
      499
 91
      503
 93
      105
310
903323A310000000000000010100
  0
ACAD_PROXY_OBJECT
  5
3B1
102
{ACAD_REACTORS
330
3A3
102
}
330
3A3
100
AcDbProxyObject
 90
      499
 91
      503
 93
      105
310
903343A310000000000000410100
  0
ACAD_PROXY_OBJECT
  5
3B2
102
{ACAD_REACTORS
330
3A3
102
}
330
3A3
100
AcDbProxyObject
 90
      499
 91
      503
 93
      105
310
903383A310000000000000810100
  0
ACAD_PROXY_OBJECT
  5
3B3
102
{ACAD_REACTORS
330
3A3
102
}
330
3A3
100
AcDbProxyObject
 90
      499
 91
      503
 93
      113
310
90431303A310000000000000910100
  0
ACAD_PROXY_OBJECT
  5
3B4
102
{ACAD_REACTORS
330
3A3
102
}
330
3A3
100
AcDbProxyObject
 90
      499
 91
      503
 93
      121
310
9053130303A310000000000001650100
  0
ACAD_PROXY_OBJECT
  5
3B5
102
{ACAD_REACTORS
330
3A3
102
}
330
3A3
100
AcDbProxyObject
 90
      499
 91
      503
 93
      257
310
90E312F31323822203D2031272D3022000000000000200FC000000000000284000
  0
ACAD_PROXY_OBJECT
  5
3B6
102
{ACAD_REACTORS
330
3A3
102
}
330
3A3
100
AcDbProxyObject
 90
      499
 91
      503
 93
      249
310
90D312F363422203D2031272D3022000000000000240FC000000000000284000
  0
ACAD_PROXY_OBJECT
  5
3B7
102
{ACAD_REACTORS
330
3A3
102
}
330
3A3
100
AcDbProxyObject
 90
      499
 91
      503
 93
      249
310
90D312F333222203D2031272D3022000000000000280FC000000000000284000
  0
ACAD_PROXY_OBJECT
  5
3B8
102
{ACAD_REACTORS
330
3A3
102
}
330
3A3
100
AcDbProxyObject
 90
      499
 91
      503
 93
      249
310
90D312F313622203D2031272D30220000000000002C0FC000000000000284000
  0
ACAD_PROXY_OBJECT
  5
3B9
102
{ACAD_REACTORS
330
3A3
102
}
330
3A3
100
AcDbProxyObject
 90
      499
 91
      503
 93
      249
310
90D332F333222203D2031272D30220000000000002E0FC000000000000284000
  0
ACAD_PROXY_OBJECT
  5
3BA
102
{ACAD_REACTORS
330
3A3
102
}
330
3A3
100
AcDbProxyObject
 90
      499
 91
      503
 93
      241
310
90C312F3822203D2031272D3022000000000000300FC000000000000284000
  0
ACAD_PROXY_OBJECT
  5
3BB
102
{ACAD_REACTORS
330
3A3
102
}
330
3A3
100
AcDbProxyObject
 90
      499
 91
      503
 93
      249
310
90D332F313622203D2031272D3022000000000000320FC000000000000284000
  0
ACAD_PROXY_OBJECT
  5
3BC
102
{ACAD_REACTORS
330
3A3
102
}
330
3A3
100
AcDbProxyObject
 90
      499
 91
      503
 93
      241
310
90C312F3422203D2031272D3022000000000000340FC000000000000284000
  0
ACAD_PROXY_OBJECT
  5
3BD
102
{ACAD_REACTORS
330
3A3
102
}
330
3A3
100
AcDbProxyObject
 90
      499
 91
      503
 93
      241
310
90C332F3822203D2031272D3022000000000000360FC000000000000284000
  0
ACAD_PROXY_OBJECT
  5
3BE
102
{ACAD_REACTORS
330
3A3
102
}
330
3A3
100
AcDbProxyObject
 90
      499
 91
      503
 93
      241
310
90C312F3222203D2031272D3022000000000000380FC000000000000284000
  0
ACAD_PROXY_OBJECT
  5
3BF
102
{ACAD_REACTORS
330
3A3
102
}
330
3A3
100
AcDbProxyObject
 90
      499
 91
      503
 93
      241
310
90C332F3422203D2031272D30220000000000003A0FC000000000000284000
  0
ACAD_PROXY_OBJECT
  5
3C0
102
{ACAD_REACTORS
330
3A3
102
}
330
3A3
100
AcDbProxyObject
 90
      499
 91
      503
 93
      161
310
90A3122203D2031272D30224000000000000284000
  0
ACAD_PROXY_OBJECT
  5
3C1
102
{ACAD_REACTORS
330
3A3
102
}
330
3A3
100
AcDbProxyObject
 90
      499
 91
      503
 93
      257
310
90E312D312F3222203D2031272D30220000000000003E0FC000000000000284000
  0
ACAD_PROXY_OBJECT
  5
3C2
102
{ACAD_REACTORS
330
3A3
102
}
330
3A3
100
AcDbProxyObject
 90
      499
 91
      503
 93
      225
310
90A3322203D2031272D302200000000000002100000000000000284000
  0
ACAD_PROXY_OBJECT
  5
3C3
102
{ACAD_REACTORS
330
3A3
102
}
330
3A3
100
AcDbProxyObject
 90
      499
 91
      503
 93
      225
310
90A3622203D2031272D302200000000000006100000000000000284000
  0
ACAD_PROXY_OBJECT
  5
3C4
102
{ACAD_REACTORS
330
3A3
102
}
330
3A3
100
AcDbProxyObject
 90
      499
 91
      503
 93
      249
310
90D31272D3022203D2031272D30220000000000000A100000000000000284000
  0
ACAD_PROXY_OBJECT
  5
2F
102
{ACAD_REACTORS
330
2A
102
}
330
2A
100
AcDbProxyObject
 90
      499
 91
      501
 93
      436
310
42CC9915DA5C99599C985B595049028333333333333E3BF0000000000000FB0107901411070040501600405405064090741402480A0340
1001
ACAD
1000
AcDbSavedByObjectVersion
1070
     0
  0
ACAD_PROXY_OBJECT
  5
31
102
{ACAD_REACTORS
330
2A
102
}
330
2A
100
AcDbProxyObject
 90
      499
 91
      501
 93
      500
310
424CD108121A5919195B90640502408333333333333E3BF0000000000000FB01079024090700405020000000000001110200405405064090740C02480A0340
1001
ACAD
1000
AcDbSavedByObjectVersion
1070
     0
  0
ACAD_PROXY_OBJECT
  5
30
102
{ACAD_REACTORS
330
2A
102
}
330
2A
100
AcDbProxyObject
 90
      499
 91
      501
 93
      436
310
42CCD915DA5C99599C985B595059028333333333333E3BF0000000000000FB0107901411070040501600405405064090741402480A0340
1001
ACAD
1000
AcDbSavedByObjectVersion
1070
     0
  0
ACAD_PROXY_OBJECT
  5
32
102
{ACAD_REACTORS
330
2A
102
}
330
2A
100
AcDbProxyObject
 90
      499
 91
      501
 93
      388
310
4150985CDA58D07406404333333333333E3BF0000000000000FB0107A41107004050150841D405064090741402480A0350
1001
ACAD
1000
AcDbSavedByObjectVersion
1070
     0
  0
ACAD_PROXY_OBJECT
  5
36
102
{ACAD_REACTORS
330
2A
102
}
330
2A
100
AcDbProxyObject
 90
      499
 91
      501
 93
      428
310
42109C9A59DA1D195B90C409028333333333333E3BF0000000000000FB010790141107004050150841D405064090741402480A029950
1001
ACAD
1000
AcDbSavedByObjectVersion
1070
     0
  0
ACAD_PROXY_OBJECT
  5
3A
102
{ACAD_REACTORS
330
2A
102
}
330
2A
100
AcDbProxyObject
 90
      499
 91
      501
 93
      452
310
42D0DBDB1BDC90DA185B99D95104090240C333333333333E3BF0000000000000FB0108901411070040501508421405064090741402480A0350
1001
ACAD
1000
AcDbSavedByObjectVersion
1070
     0
  0
ACAD_PROXY_OBJECT
  5
34
102
{ACAD_REACTORS
330
2A
102
}
330
2A
100
AcDbProxyObject
 90
      499
 91
      501
 93
      500
310
4290DBDB98D95C1D1D585B10940D028333333333333E3BF0000000000000FB0107902409070040501000000000000111010841D405064090740C02480A0340
1001
ACAD
1000
AcDbSavedByObjectVersion
1070
     0
  0
ACAD_PROXY_OBJECT
  5
35
102
{ACAD_REACTORS
330
2A
102
}
330
2A
100
AcDbProxyObject
 90
      499
 91
      501
 93
      412
310
40D11A5B50B409028333333333333E3BF0000000000000FB010790141107004050150841D405064090741402480A02677FFFFFD0
1001
ACAD
1000
AcDbSavedByObjectVersion
1070
     0
  0
ACAD_PROXY_OBJECT
  5
39
102
{ACAD_REACTORS
330
2A
102
}
330
2A
100
AcDbProxyObject
 90
      499
 91
      501
 93
      444
310
42D19858D95C185D1D195C9B90F409028333333333333E3BF0000000000000FB010790141107004050150841D405064090741402480A0350
1001
ACAD
1000
AcDbSavedByObjectVersion
1070
     0
  0
ACAD_PROXY_OBJECT
  5
2B
102
{ACAD_REACTORS
330
2A
102
}
330
2A
100
AcDbProxyObject
 90
      499
 91
      501
 93
      388
310
41119B185D240901404333333333333E3BF0000000000000F9010740A41107004050150841D405064090741402480A1B50
1001
ACAD
1000
AcDbSavedByObjectVersion
1070
     0
  0
ACAD_PROXY_OBJECT
  5
2C
102
{ACAD_REACTORS
330
2A
102
}
330
2A
100
AcDbProxyObject
 90
      499
 91
      501
 93
      476
310
43519B185D15DA5D1A115919D95CD0140901404333333333333E3BF0000000000000F9010740901411070040501600405405064090741402480A1B50
1001
ACAD
1000
AcDbSavedByObjectVersion
1070
     0
  0
ACAD_PROXY_OBJECT
  5
2D
102
{ACAD_REACTORS
330
2A
102
}
330
2A
100
AcDbProxyObject
 90
      499
 91
      501
 93
      412
310
41D1DBDD5C985D5910240902404333333333333E3BF0000000000000F9010740A411070040501641D405064090741402480A1B50
1001
ACAD
1000
AcDbSavedByObjectVersion
1070
     0
  0
ACAD_PROXY_OBJECT
  5
2E
102
{ACAD_REACTORS
330
2A
102
}
330
2A
100
AcDbProxyObject
 90
      499
 91
      501
 93
      500
310
4411DBDD5C985D5915DA5D1A115919D95CD0340902404333333333333E3BF0000000000000F9010740901411070040501600405405064090741402480A1B50
1001
ACAD
1000
AcDbSavedByObjectVersion
1070
     0
  0
ACAD_PROXY_OBJECT
  5
38
102
{ACAD_REACTORS
330
2A
102
}
330
2A
100
AcDbProxyObject
 90
      499
 91
      501
 93
      444
310
42D31A5B995C185D1D195C9B90E409028333333333333E3BF0000000000000FB010790141107004050750841D405064090741402483A0350
1001
ACAD
1000
AcDbSavedByObjectVersion
1070
     0
  0
ACAD_PROXY_OBJECT
  5
33
102
{ACAD_REACTORS
330
2A
102
}
330
2A
100
AcDbProxyObject
 90
      499
 91
      501
 93
      420
310
425499585B1A5CDD1A58D08409028333333333333E3BF0000000000000FB01079019070040501508421405064090741402480A1B40
1001
ACAD
1000
AcDbSavedByObjectVersion
1070
     0
  0
ACAD_PROXY_OBJECT
  5
37
102
{ACAD_REACTORS
330
2A
102
}
330
2A
100
AcDbProxyObject
 90
      499
 91
      501
 93
      412
310
41D51A1A58DAD95B90D409028333333333333E3BF0000000000000FB010790141107004050150C41D405064090741402480A0350
1001
ACAD
1000
AcDbSavedByObjectVersion
1070
     0
  0
XRECORD
  5
446
102
{ACAD_REACTORS
330
43D
102
}
330
43D
100
AcDbXrecord
 90
        0
  0
XRECORD
  5
45C
102
{ACAD_REACTORS
330
43D
102
}
330
43D
100
AcDbXrecord
1000
DSTYLE
1002
{
1070
   340
340
11
1002
}
  0
XRECORD
  5
447
102
{ACAD_REACTORS
330
43D
102
}
330
43D
100
AcDbXrecord
  1
{097C080E-31D4-4908-B3EB-FDF11AC8CC30}
  0
XRECORD
  5
440
102
{ACAD_REACTORS
330
43D
102
}
330
43D
100
AcDbXrecord
  1

  0
XRECORD
  5
445
102
{ACAD_REACTORS
330
43D
102
}
330
43D
100
AcDbXrecord
 90
        1
  0
XRECORD
  5
442
102
{ACAD_REACTORS
330
43D
102
}
330
43D
100
AcDbXrecord
340
1A
  0
XRECORD
  5
444
102
{ACAD_REACTORS
330
43D
102
}
330
43D
100
AcDbXrecord
 90
    10781
  0
XRECORD
  5
443
102
{ACAD_REACTORS
330
43D
102
}
330
43D
100
AcDbXrecord
340
19
  0
XRECORD
  5
449
102
{ACAD_REACTORS
330
43D
102
}
330
43D
100
AcDbXrecord
 40
0.0
  0
XRECORD
  5
44C
102
{ACAD_REACTORS
330
43D
102
}
330
43D
100
AcDbXrecord
340
0
  0
XRECORD
  5
452
102
{ACAD_REACTORS
330
43D
102
}
330
43D
100
AcDbXrecord
 10
0.0
 20
0.0
 30
0.0
  0
XRECORD
  5
44E
102
{ACAD_REACTORS
330
43D
102
}
330
43D
100
AcDbXrecord
 10
0.0
 20
0.0
 30
0.0
  0
XRECORD
  5
451
102
{ACAD_REACTORS
330
43D
102
}
330
43D
100
AcDbXrecord
 10
0.0
 20
0.0
 30
0.0
  0
XRECORD
  5
44F
102
{ACAD_REACTORS
330
43D
102
}
330
43D
100
AcDbXrecord
 10
0.0
 20
0.0
 30
0.0
  0
XRECORD
  5
450
102
{ACAD_REACTORS
330
43D
102
}
330
43D
100
AcDbXrecord
 10
0.0
 20
0.0
 30
0.0
  0
XRECORD
  5
44D
102
{ACAD_REACTORS
330
43D
102
}
330
43D
100
AcDbXrecord
 10
0.0
 20
0.0
 30
0.0
  0
XRECORD
  5
44A
102
{ACAD_REACTORS
330
43D
102
}
330
43D
100
AcDbXrecord
340
0
  0
XRECORD
  5
44B
102
{ACAD_REACTORS
330
43D
102
}
330
43D
100
AcDbXrecord
 70
     0
  0
XRECORD
  5
441
102
{ACAD_REACTORS
330
43D
102
}
330
43D
100
AcDbXrecord
  1

  0
XRECORD
  5
43E
102
{ACAD_REACTORS
330
43D
102
}
330
43D
100
AcDbXrecord
 90
        1
  0
XRECORD
  5
43F
102
{ACAD_REACTORS
330
43D
102
}
330
43D
100
AcDbXrecord
 90
       70
  0
XRECORD
  5
455
102
{ACAD_REACTORS
330
43D
102
}
330
43D
100
AcDbXrecord
340
0
  0
XRECORD
  5
45B
102
{ACAD_REACTORS
330
43D
102
}
330
43D
100
AcDbXrecord
 10
0.0
 20
0.0
 30
0.0
  0
XRECORD
  5
457
102
{ACAD_REACTORS
330
43D
102
}
330
43D
100
AcDbXrecord
 10
0.0
 20
0.0
 30
0.0
  0
XRECORD
  5
45A
102
{ACAD_REACTORS
330
43D
102
}
330
43D
100
AcDbXrecord
 10
0.0
 20
0.0
 30
0.0
  0
XRECORD
  5
458
102
{ACAD_REACTORS
330
43D
102
}
330
43D
100
AcDbXrecord
 10
0.0
 20
0.0
 30
0.0
  0
XRECORD
  5
459
102
{ACAD_REACTORS
330
43D
102
}
330
43D
100
AcDbXrecord
 10
0.0
 20
0.0
 30
0.0
  0
XRECORD
  5
456
102
{ACAD_REACTORS
330
43D
102
}
330
43D
100
AcDbXrecord
 10
0.0
 20
0.0
 30
0.0
  0
XRECORD
  5
453
102
{ACAD_REACTORS
330
43D
102
}
330
43D
100
AcDbXrecord
340
0
  0
XRECORD
  5
454
102
{ACAD_REACTORS
330
43D
102
}
330
43D
100
AcDbXrecord
 70
     0
  0
XRECORD
  5
448
102
{ACAD_REACTORS
330
43D
102
}
330
43D
100
AcDbXrecord
  1
{FAEB1C32-E019-11D5-929B-00C0DF256EC4}
  0
DICTIONARYVAR
  5
460
102
{ACAD_REACTORS
330
45D
102
}
330
45D
100
DictionaryVariables
280
     0
  1
1:1
  0
DICTIONARYVAR
  5
461
102
{ACAD_REACTORS
330
45D
102
}
330
45D
100
DictionaryVariables
280
     0
  1
2
  0
DICTIONARYVAR
  5
462
102
{ACAD_REACTORS
330
45D
102
}
330
45D
100
DictionaryVariables
280
     0
  1
1
  0
DICTIONARY
  5
465
330
3D
100
AcDbDictionary
280
     1
  3
ACAD_XREC_ROUNDTRIP
360
466
  0
DICTIONARY
  5
463
330
3C
100
AcDbDictionary
280
     1
  3
ACAD_XREC_ROUNDTRIP
360
464
  0
DICTIONARY
  5
467
330
3E
100
AcDbDictionary
280
     1
  3
ACAD_XREC_ROUNDTRIP
360
468
  0
XRECORD
  5
466
102
{ACAD_REACTORS
330
465
102
}
330
465
100
AcDbXrecord
102
MATERIAL
148
0.0
149
0.0
149
0.0
 93
        0
 94
      127
282
     0
 72
     1
 77
     1
171
     1
175
     1
179
     1
273
     0
  0
XRECORD
  5
464
102
{ACAD_REACTORS
330
463
102
}
330
463
100
AcDbXrecord
102
MATERIAL
148
0.0
149
0.0
149
0.0
 93
        0
 94
      127
282
     0
 72
     1
 77
     1
171
     1
175
     1
179
     1
273
     0
  0
XRECORD
  5
468
102
{ACAD_REACTORS
330
467
102
}
330
467
100
AcDbXrecord
102
MATERIAL
148
0.0
149
0.0
149
0.0
 93
        0
 94
      127
282
     0
 72
     1
 77
     1
171
     1
175
     1
179
     1
273
     0
  0
ENDSEC
  0
EOF
