  0
SECTION
  2
HEADER
  9
$ACADVER
  1
AC1014
  9
$ACADMAINTVER
 70
     9
  9
$DWGCODEPAGE
  3
ANSI_1252
  9
$INSBASE
 10
0.0
 20
0.0
 30
0.0
  9
$EXTMIN
 10
1.000000000000000E+20
 20
1.000000000000000E+20
 30
1.000000000000000E+20
  9
$EXTMAX
 10
-1.000000000000000E+20
 20
-1.000000000000000E+20
 30
-1.000000000000000E+20
  9
$LIMMIN
 10
0.0
 20
0.0
  9
$LIMMAX
 10
12.0
 20
9.0
  9
$ORTHOMODE
 70
     0
  9
$REGENMODE
 70
     1
  9
$FILLMODE
 70
     1
  9
$QTEXTMODE
 70
     0
  9
$MIRRTEXT
 70
     1
  9
$DRAGMODE
 70
     2
  9
$LTSCALE
 40
1.0
  9
$OSMODE
 70
    37
  9
$ATTMODE
 70
     1
  9
$TEXTSIZE
 40
0.2
  9
$TRACEWID
 40
0.05
  9
$TEXTSTYLE
  7
STANDARD
  9
$CLAYER
  8
0
  9
$CELTYPE
  6
BYLAYER
  9
$CECOLOR
 62
   256
  9
$CELTSCALE
 40
1.0
  9
$DELOBJ
 70
     1
  9
$DISPSILH
 70
     0
  9
$DIMSCALE
 40
1.0
  9
$DIMASZ
 40
0.18
  9
$DIMEXO
 40
0.0625
  9
$DIMDLI
 40
0.38
  9
$DIMRND
 40
0.0
  9
$DIMDLE
 40
0.0
  9
$DIMEXE
 40
0.18
  9
$DIMTP
 40
0.0
  9
$DIMTM
 40
0.0
  9
$DIMTXT
 40
0.18
  9
$DIMCEN
 40
0.09
  9
$DIMTSZ
 40
0.0
  9
$DIMTOL
 70
     0
  9
$DIMLIM
 70
     0
  9
$DIMTIH
 70
     1
  9
$DIMTOH
 70
     1
  9
$DIMSE1
 70
     0
  9
$DIMSE2
 70
     0
  9
$DIMTAD
 70
     0
  9
$DIMZIN
 70
     0
  9
$DIMBLK
  1

  9
$DIMASO
 70
     1
  9
$DIMSHO
 70
     1
  9
$DIMPOST
  1

  9
$DIMAPOST
  1

  9
$DIMALT
 70
     0
  9
$DIMALTD
 70
     2
  9
$DIMALTF
 40
25.4
  9
$DIMLFAC
 40
1.0
  9
$DIMTOFL
 70
     0
  9
$DIMTVP
 40
0.0
  9
$DIMTIX
 70
     0
  9
$DIMSOXD
 70
     0
  9
$DIMSAH
 70
     0
  9
$DIMBLK1
  1

  9
$DIMBLK2
  1

  9
$DIMSTYLE
  2
STANDARD
  9
$DIMCLRD
 70
     0
  9
$DIMCLRE
 70
     0
  9
$DIMCLRT
 70
     0
  9
$DIMTFAC
 40
1.0
  9
$DIMGAP
 40
0.09
  9
$DIMJUST
 70
     0
  9
$DIMSD1
 70
     0
  9
$DIMSD2
 70
     0
  9
$DIMTOLJ
 70
     1
  9
$DIMTZIN
 70
     0
  9
$DIMALTZ
 70
     0
  9
$DIMALTTZ
 70
     0
  9
$DIMFIT
 70
     3
  9
$DIMUPT
 70
     0
  9
$DIMUNIT
 70
     2
  9
$DIMDEC
 70
     4
  9
$DIMTDEC
 70
     4
  9
$DIMALTU
 70
     2
  9
$DIMALTTD
 70
     2
  9
$DIMTXSTY
  7
STANDARD
  9
$DIMAUNIT
 70
     0
  9
$LUNITS
 70
     2
  9
$LUPREC
 70
     4
  9
$SKETCHINC
 40
0.1
  9
$FILLETRAD
 40
0.5
  9
$AUNITS
 70
     0
  9
$AUPREC
 70
     0
  9
$MENU
  1
.
  9
$ELEVATION
 40
0.0
  9
$PELEVATION
 40
0.0
  9
$THICKNESS
 40
0.0
  9
$LIMCHECK
 70
     0
  9
$CHAMFERA
 40
0.5
  9
$CHAMFERB
 40
0.5
  9
$CHAMFERC
 40
1.0
  9
$CHAMFERD
 40
0.0
  9
$SKPOLY
 70
     0
  9
$TDCREATE
 40
2455525.487169386
  9
$TDUPDATE
 40
2455525.487169398
  9
$TDINDWG
 40
0.0000000116
  9
$TDUSRTIMER
 40
0.0000000116
  9
$USRTIMER
 70
     1
  9
$ANGBASE
 50
0.0
  9
$ANGDIR
 70
     0
  9
$PDMODE
 70
     0
  9
$PDSIZE
 40
0.0
  9
$PLINEWID
 40
0.0
  9
$COORDS
 70
     1
  9
$SPLFRAME
 70
     0
  9
$SPLINETYPE
 70
     6
  9
$SPLINESEGS
 70
     8
  9
$ATTDIA
 70
     0
  9
$ATTREQ
 70
     1
  9
$HANDLING
 70
     1
  9
$HANDSEED
  5
407
  9
$SURFTAB1
 70
     6
  9
$SURFTAB2
 70
     6
  9
$SURFTYPE
 70
     6
  9
$SURFU
 70
     6
  9
$SURFV
 70
     6
  9
$UCSNAME
  2

  9
$UCSORG
 10
0.0
 20
0.0
 30
0.0
  9
$UCSXDIR
 10
1.0
 20
0.0
 30
0.0
  9
$UCSYDIR
 10
0.0
 20
1.0
 30
0.0
  9
$PUCSNAME
  2

  9
$PUCSORG
 10
0.0
 20
0.0
 30
0.0
  9
$PUCSXDIR
 10
1.0
 20
0.0
 30
0.0
  9
$PUCSYDIR
 10
0.0
 20
1.0
 30
0.0
  9
$USERI1
 70
     0
  9
$USERI2
 70
     0
  9
$USERI3
 70
     0
  9
$USERI4
 70
     0
  9
$USERI5
 70
     0
  9
$USERR1
 40
0.0
  9
$USERR2
 40
0.0
  9
$USERR3
 40
0.0
  9
$USERR4
 40
0.0
  9
$USERR5
 40
0.0
  9
$WORLDVIEW
 70
     1
  9
$SHADEDGE
 70
     3
  9
$SHADEDIF
 70
    70
  9
$TILEMODE
 70
     1
  9
$MAXACTVP
 70
    64
  9
$PINSBASE
 10
0.0
 20
0.0
 30
0.0
  9
$PLIMCHECK
 70
     0
  9
$PEXTMIN
 10
1.000000000000000E+20
 20
1.000000000000000E+20
 30
1.000000000000000E+20
  9
$PEXTMAX
 10
-1.000000000000000E+20
 20
-1.000000000000000E+20
 30
-1.000000000000000E+20
  9
$PLIMMIN
 10
0.0
 20
0.0
  9
$PLIMMAX
 10
12.0
 20
9.0
  9
$UNITMODE
 70
     0
  9
$VISRETAIN
 70
     1
  9
$PLINEGEN
 70
     0
  9
$PSLTSCALE
 70
     1
  9
$TREEDEPTH
 70
  3020
  9
$PICKSTYLE
 70
     1
  9
$CMLSTYLE
  2
STANDARD
  9
$CMLJUST
 70
     0
  9
$CMLSCALE
 40
1.0
  9
$PROXYGRAPHICS
 70
     1
  9
$MEASUREMENT
 70
     0
  0
ENDSEC
  0
SECTION
  2
CLASSES
  0
CLASS
  1
ACDBDICTIONARYWDFLT
  2
AcDbDictionaryWithDefault
  3
ObjectDBX Classes
 90
        0
280
     0
281
     0
  0
CLASS
  1
VISUALSTYLE
  2
AcDbVisualStyle
  3
ObjectDBX Classes
 90
     4095
280
     0
281
     0
  0
CLASS
  1
MATERIAL
  2
AcDbMaterial
  3
ObjectDBX Classes
 90
     1153
280
     0
281
     0
  0
CLASS
  1
SCALE
  2
AcDbScale
  3
ObjectDBX Classes
 90
     1153
280
     0
281
     0
  0
CLASS
  1
DICTIONARYVAR
  2
AcDbDictionaryVar
  3
ObjectDBX Classes
 90
        0
280
     0
281
     0
  0
CLASS
  1
XRECORD
  2
AcDbXrecord
  3
AutoCAD 2000
 90
        0
280
     0
281
     0
  0
CLASS
  1
LWPOLYLINE
  2
AcDbPolyline
  3
AutoCAD 2000
 90
        0
280
     0
281
     1
  0
CLASS
  1
HATCH
  2
AcDbHatch
  3
AutoCAD 2000
 90
        0
280
     0
281
     1
  0
CLASS
  1
ACDBPLACEHOLDER
  2
AcDbPlaceHolder
  3
ObjectDBX Classes
 90
        0
280
     0
281
     0
  0
CLASS
  1
LAYOUT
  2
AcDbLayout
  3
ObjectDBX Classes
 90
        0
280
     0
281
     0
  0
ENDSEC
  0
SECTION
  2
TABLES
  0
TABLE
  2
VPORT
  5
8
330
0
100
AcDbSymbolTable
 70
     1
  0
VPORT
  5
29
330
8
100
AcDbSymbolTableRecord
100
AcDbViewportTableRecord
  2
*ACTIVE
 70
     0
 10
0.0
 20
0.0
 11
1.0
 21
1.0
 12
0.0
 22
0.0
 13
0.0
 23
0.0
 14
0.5
 24
0.5
 15
0.5
 25
0.5
 16
-6.977164745330811
 26
6.977164745330811
 36
6.97716474533073
 17
2.0
 27
0.1875
 37
0.0000000000000806
 40
17.02168655395508
 41
0.2509800245756906
 42
50.0
 43
0.0
 44
0.0
 50
0.0
 51
240.0
 71
     0
 72
   100
 73
     1
 74
     3
 75
     0
 76
     0
 77
     0
 78
     0
  0
ENDTAB
  0
TABLE
  2
LTYPE
  5
5
330
0
100
AcDbSymbolTable
 70
     1
  0
LTYPE
  5
14
330
5
100
AcDbSymbolTableRecord
100
AcDbLinetypeTableRecord
  2
BYBLOCK
 70
     0
  3

 72
    65
 73
     0
 40
0.0
  0
LTYPE
  5
15
330
5
100
AcDbSymbolTableRecord
100
AcDbLinetypeTableRecord
  2
BYLAYER
 70
     0
  3

 72
    65
 73
     0
 40
0.0
  0
LTYPE
  5
16
330
5
100
AcDbSymbolTableRecord
100
AcDbLinetypeTableRecord
  2
CONTINUOUS
 70
     0
  3
Solid line
 72
    65
 73
     0
 40
0.0
  0
ENDTAB
  0
TABLE
  2
LAYER
  5
2
330
0
100
AcDbSymbolTable
 70
     1
  0
LAYER
  5
10
330
2
100
AcDbSymbolTableRecord
100
AcDbLayerTableRecord
  2
0
 70
     0
 62
     7
  6
CONTINUOUS
  0
ENDTAB
  0
TABLE
  2
STYLE
  5
3
330
0
100
AcDbSymbolTable
 70
     1
  0
STYLE
  5
11
330
3
100
AcDbSymbolTableRecord
100
AcDbTextStyleTableRecord
  2
STANDARD
 70
     0
 40
0.0
 41
1.0
 50
0.0
 71
     0
 42
0.2
  3
txt
  4

  0
ENDTAB
  0
TABLE
  2
VIEW
  5
6
330
0
100
AcDbSymbolTable
 70
     0
  0
ENDTAB
  0
TABLE
  2
UCS
  5
7
330
0
100
AcDbSymbolTable
 70
     0
  0
ENDTAB
  0
TABLE
  2
APPID
  5
9
330
0
100
AcDbSymbolTable
 70
     1
  0
APPID
  5
12
330
9
100
AcDbSymbolTableRecord
100
AcDbRegAppTableRecord
  2
ACAD
 70
     0
  0
ENDTAB
  0
TABLE
  2
DIMSTYLE
  5
A
330
0
100
AcDbSymbolTable
 70
     1
  0
DIMSTYLE
105
27
330
A
100
AcDbSymbolTableRecord
100
AcDbDimStyleTableRecord
  2
STANDARD
 70
     0
  3

  4

  5

  6

  7

 40
1.0
 41
0.18
 42
0.0625
 43
0.38
 44
0.18
 45
0.0
 46
0.0
 47
0.0
 48
0.0
140
0.18
141
0.09
142
0.0
143
25.4
144
1.0
145
0.0
146
1.0
147
0.09
 71
     0
 72
     0
 73
     1
 74
     1
 75
     0
 76
     0
 77
     0
 78
     0
170
     0
171
     2
172
     0
173
     0
174
     0
175
     0
176
     0
177
     0
178
     0
270
     2
271
     4
272
     4
273
     2
274
     2
340
11
275
     0
280
     0
281
     0
282
     0
283
     1
284
     0
285
     0
286
     0
287
     3
288
     0
  0
ENDTAB
  0
TABLE
  2
BLOCK_RECORD
  5
1
330
0
100
AcDbSymbolTable
 70
    20
  0
BLOCK_RECORD
  5
1F
330
1
100
AcDbSymbolTableRecord
100
AcDbBlockTableRecord
  2
*MODEL_SPACE
  0
BLOCK_RECORD
  5
1B
330
1
100
AcDbSymbolTableRecord
100
AcDbBlockTableRecord
  2
*PAPER_SPACE
  0
BLOCK_RECORD
  5
3F
330
1
100
AcDbSymbolTableRecord
100
AcDbBlockTableRecord
  2
_STYLE_LIBRARY__DWFW3D_PUB
  0
BLOCK_RECORD
  5
42
330
1
100
AcDbSymbolTableRecord
100
AcDbBlockTableRecord
  2
_INCLUDE_LIBRARY_88
  0
BLOCK_RECORD
  5
45
330
1
100
AcDbSymbolTableRecord
100
AcDbBlockTableRecord
  2
*U3
  0
BLOCK_RECORD
  5
226
330
1
100
AcDbSymbolTableRecord
100
AcDbBlockTableRecord
  2
*U4
  0
BLOCK_RECORD
  5
2CD
330
1
100
AcDbSymbolTableRecord
100
AcDbBlockTableRecord
  2
*U5
  0
BLOCK_RECORD
  5
2D1
330
1
100
AcDbSymbolTableRecord
100
AcDbBlockTableRecord
  2
92
  0
BLOCK_RECORD
  5
2D5
330
1
100
AcDbSymbolTableRecord
100
AcDbBlockTableRecord
  2
93
  0
BLOCK_RECORD
  5
2D9
330
1
100
AcDbSymbolTableRecord
100
AcDbBlockTableRecord
  2
94
  0
BLOCK_RECORD
  5
2DD
330
1
100
AcDbSymbolTableRecord
100
AcDbBlockTableRecord
  2
95
  0
BLOCK_RECORD
  5
2E1
330
1
100
AcDbSymbolTableRecord
100
AcDbBlockTableRecord
  2
*U10
  0
BLOCK_RECORD
  5
3A5
330
1
100
AcDbSymbolTableRecord
100
AcDbBlockTableRecord
  2
*U11
  0
BLOCK_RECORD
  5
3B6
330
1
100
AcDbSymbolTableRecord
100
AcDbBlockTableRecord
  2
98
  0
BLOCK_RECORD
  5
3BA
330
1
100
AcDbSymbolTableRecord
100
AcDbBlockTableRecord
  2
99
  0
BLOCK_RECORD
  5
3BE
330
1
100
AcDbSymbolTableRecord
100
AcDbBlockTableRecord
  2
100
  0
BLOCK_RECORD
  5
3C2
330
1
100
AcDbSymbolTableRecord
100
AcDbBlockTableRecord
  2
101
  0
BLOCK_RECORD
  5
3C7
330
1
100
AcDbSymbolTableRecord
100
AcDbBlockTableRecord
  2
102
  0
BLOCK_RECORD
  5
3CC
330
1
100
AcDbSymbolTableRecord
100
AcDbBlockTableRecord
  2
103
  0
BLOCK_RECORD
  5
3D1
330
1
100
AcDbSymbolTableRecord
100
AcDbBlockTableRecord
  2
104
  0
BLOCK_RECORD
  5
3D6
330
1
100
AcDbSymbolTableRecord
100
AcDbBlockTableRecord
  2
105
  0
ENDTAB
  0
ENDSEC
  0
SECTION
  2
BLOCKS
  0
BLOCK
  5
20
330
1F
100
AcDbEntity
  8
0
100
AcDbBlockBegin
  2
*MODEL_SPACE
 70
     0
 10
0.0
 20
0.0
 30
0.0
  3
*MODEL_SPACE
  1

  0
ENDBLK
  5
21
330
1F
100
AcDbEntity
  8
0
100
AcDbBlockEnd
  0
BLOCK
  5
1C
330
1B
100
AcDbEntity
 67
     1
  8
0
100
AcDbBlockBegin
  2
*PAPER_SPACE
 70
     0
 10
0.0
 20
0.0
 30
0.0
  3
*PAPER_SPACE
  1

  0
ENDBLK
  5
1D
330
1B
100
AcDbEntity
 67
     1
  8
0
100
AcDbBlockEnd
  0
BLOCK
  5
40
330
3F
100
AcDbEntity
  8
0
100
AcDbBlockBegin
  2
_STYLE_LIBRARY__DWFW3D_PUB
 70
     0
 10
0.0
 20
0.0
 30
0.0
  3
_STYLE_LIBRARY__DWFW3D_PUB
  1

  0
ENDBLK
  5
41
330
3F
100
AcDbEntity
  8
0
100
AcDbBlockEnd
  0
BLOCK
  5
43
330
42
100
AcDbEntity
  8
0
100
AcDbBlockBegin
  2
_INCLUDE_LIBRARY_88
 70
     0
 10
0.0
 20
0.0
 30
0.0
  3
_INCLUDE_LIBRARY_88
  1

  0
INSERT
  5
46
330
42
100
AcDbEntity
  8
0
100
AcDbBlockReference
  2
*U3
 10
0.0
 20
0.0
 30
0.0
  0
ENDBLK
  5
44
330
42
100
AcDbEntity
  8
0
100
AcDbBlockEnd
  0
BLOCK
  5
47
330
45
100
AcDbEntity
  8
0
100
AcDbBlockBegin
  2
*U3
 70
     1
 10
0.0
 20
0.0
 30
0.0
  3
*U3
  1

  0
POLYLINE
  5
49
330
45
100
AcDbEntity
  8
0
 62
     9
100
AcDbPolyFaceMesh
 66
     1
 10
0.0
 20
0.0
 30
0.0
 70
    64
 71
   247
 72
   228
  0
VERTEX
  5
4A
330
49
100
AcDbEntity
  8
0
 62
     9
100
AcDbVertex
100
AcDbPolyFaceMeshVertex
 10
-0.0052083334885538
 20
-0.0000000000001078
 30
-0.0090210977941751
 70
   192
  0
VERTEX
  5
4B
330
49
100
AcDbEntity
  8
0
 62
     9
100
AcDbVertex
100
AcDbPolyFaceMeshVertex
 10
-0.002696031704545
 20
-0.0000000000001077
 30
-0.0100617269054055
 70
   192
  0
VERTEX
  5
4C
330
49
100
AcDbEntity
  8
0
 62
     9
100
AcDbVertex
100
AcDbPolyFaceMeshVertex
 10
0.0000000000000616
 20
-0.0000000000001077
 30
-0.0104166669771075
 70
   192
  0
VERTEX
  5
4D
330
49
100
AcDbEntity
  8
0
 62
     9
100
AcDbVertex
100
AcDbPolyFaceMeshVertex
 10
0.002696031704545
 20
-0.0000000000001078
 30
-0.0100617269054055
 70
   192
  0
VERTEX
  5
4E
330
49
100
AcDbEntity
  8
0
 62
     9
100
AcDbVertex
100
AcDbPolyFaceMeshVertex
 10
0.0052083334885538
 20
-0.0000000000001078
 30
-0.0090210977941751
 70
   192
  0
VERTEX
  5
4F
330
49
100
AcDbEntity
  8
0
 62
     9
100
AcDbVertex
100
AcDbPolyFaceMeshVertex
 10
0.0073656956665218
 20
-0.0000000000001078
 30
-0.0073656956665218
 70
   192
  0
VERTEX
  5
50
330
49
100
AcDbEntity
  8
0
 62
     9
100
AcDbVertex
100
AcDbPolyFaceMeshVertex
 10
0.0090210977941751
 20
-0.0000000000001078
 30
-0.0052083334885538
 70
   192
  0
VERTEX
  5
51
330
49
100
AcDbEntity
  8
0
 62
     9
100
AcDbVertex
100
AcDbPolyFaceMeshVertex
 10
0.0100617269054055
 20
-0.0000000000001079
 30
-0.002696031704545
 70
   192
  0
VERTEX
  5
52
330
49
100
AcDbEntity
  8
0
 62
     9
100
AcDbVertex
100
AcDbPolyFaceMeshVertex
 10
0.0104166669771075
 20
-0.0000000000001079
 30
0.0000000000000276
 70
   192
  0
VERTEX
  5
53
330
49
100
AcDbEntity
  8
0
 62
     9
100
AcDbVertex
100
AcDbPolyFaceMeshVertex
 10
0.0100617269054055
 20
-0.0000000000001079
 30
0.002696031704545
 70
   192
  0
VERTEX
  5
54
330
49
100
AcDbEntity
  8
0
 62
     9
100
AcDbVertex
100
AcDbPolyFaceMeshVertex
 10
0.0090210977941751
 20
-0.000000000000108
 30
0.0052083334885538
 70
   192
  0
VERTEX
  5
55
330
49
100
AcDbEntity
  8
0
 62
     9
100
AcDbVertex
100
AcDbPolyFaceMeshVertex
 10
0.0073656956665218
 20
-0.000000000000108
 30
0.0073656956665218
 70
   192
  0
VERTEX
  5
56
330
49
100
AcDbEntity
  8
0
 62
     9
100
AcDbVertex
100
AcDbPolyFaceMeshVertex
 10
0.0052083334885538
 20
-0.000000000000108
 30
0.0090210977941751
 70
   192
  0
VERTEX
  5
57
330
49
100
AcDbEntity
  8
0
 62
     9
100
AcDbVertex
100
AcDbPolyFaceMeshVertex
 10
0.002696031704545
 20
-0.000000000000108
 30
0.0100617269054055
 70
   192
  0
VERTEX
  5
58
330
49
100
AcDbEntity
  8
0
 62
     9
100
AcDbVertex
100
AcDbPolyFaceMeshVertex
 10
0.0000000000000618
 20
-0.000000000000108
 30
0.0104166669771075
 70
   192
  0
VERTEX
  5
59
330
49
100
AcDbEntity
  8
0
 62
     9
100
AcDbVertex
100
AcDbPolyFaceMeshVertex
 10
-0.002696031704545
 20
-0.000000000000108
 30
0.0100617269054055
 70
   192
  0
VERTEX
  5
5A
330
49
100
AcDbEntity
  8
0
 62
     9
100
AcDbVertex
100
AcDbPolyFaceMeshVertex
 10
-0.0052083334885538
 20
-0.000000000000108
 30
0.0090210977941751
 70
   192
  0
VERTEX
  5
5B
330
49
100
AcDbEntity
  8
0
 62
     9
100
AcDbVertex
100
AcDbPolyFaceMeshVertex
 10
-0.0073656956665218
 20
-0.000000000000108
 30
0.0073656956665218
 70
   192
  0
VERTEX
  5
5C
330
49
100
AcDbEntity
  8
0
 62
     9
100
AcDbVertex
100
AcDbPolyFaceMeshVertex
 10
-0.0090210977941751
 20
-0.0000000000001079
 30
0.0052083334885538
 70
   192
  0
VERTEX
  5
5D
330
49
100
AcDbEntity
  8
0
 62
     9
100
AcDbVertex
100
AcDbPolyFaceMeshVertex
 10
-0.0100617269054055
 20
-0.0000000000001079
 30
0.002696031704545
 70
   192
  0
VERTEX
  5
5E
330
49
100
AcDbEntity
  8
0
 62
     9
100
AcDbVertex
100
AcDbPolyFaceMeshVertex
 10
-0.0104166669771075
 20
-0.0000000000001079
 30
0.0000000000000277
 70
   192
  0
VERTEX
  5
5F
330
49
100
AcDbEntity
  8
0
 62
     9
100
AcDbVertex
100
AcDbPolyFaceMeshVertex
 10
-0.0100617269054055
 20
-0.0000000000001078
 30
-0.002696031704545
 70
   192
  0
VERTEX
  5
60
330
49
100
AcDbEntity
  8
0
 62
     9
100
AcDbVertex
100
AcDbPolyFaceMeshVertex
 10
-0.0090210977941751
 20
-0.0000000000001078
 30
-0.0052083334885538
 70
   192
  0
VERTEX
  5
61
330
49
100
AcDbEntity
  8
0
 62
     9
100
AcDbVertex
100
AcDbPolyFaceMeshVertex
 10
-0.0073656956665218
 20
-0.0000000000001078
 30
-0.0073656956665218
 70
   192
  0
VERTEX
  5
62
330
49
100
AcDbEntity
  8
0
 62
     9
100
AcDbVertex
100
AcDbPolyFaceMeshVertex
 10
0.0035607770550996
 20
0.3541666567325592
 30
-0.0097891679033637
 70
   192
  0
VERTEX
  5
63
330
49
100
AcDbEntity
  8
0
 62
     9
100
AcDbVertex
100
AcDbPolyFaceMeshVertex
 10
0.0012074996484444
 20
0.3541666567325592
 30
-0.0103464433923364
 70
   192
  0
VERTEX
  5
64
330
49
100
AcDbEntity
  8
0
 62
     9
100
AcDbVertex
100
AcDbPolyFaceMeshVertex
 10
-0.0012106189969927
 20
0.3541666567325592
 30
-0.0103460792452097
 70
   192
  0
VERTEX
  5
65
330
49
100
AcDbEntity
  8
0
 62
     9
100
AcDbVertex
100
AcDbPolyFaceMeshVertex
 10
-0.0035633954685181
 20
0.3541666567325592
 30
-0.0097882151603699
 70
   192
  0
VERTEX
  5
66
330
49
100
AcDbEntity
  8
0
 62
     9
100
AcDbVertex
100
AcDbPolyFaceMeshVertex
 10
-0.0057241837494075
 20
0.3541666567325592
 30
-0.0087029114365578
 70
   192
  0
VERTEX
  5
67
330
49
100
AcDbEntity
  8
0
 62
     9
100
AcDbVertex
100
AcDbPolyFaceMeshVertex
 10
-0.0075766337104142
 20
0.3541666567325592
 30
-0.0071485359221697
 70
   192
  0
VERTEX
  5
68
330
49
100
AcDbEntity
  8
0
 62
     9
100
AcDbVertex
100
AcDbPolyFaceMeshVertex
 10
-0.0090210977941751
 20
0.3541666567325592
 30
-0.0052083334885538
 70
   192
  0
VERTEX
  5
69
330
49
100
AcDbEntity
  8
0
 62
     9
100
AcDbVertex
100
AcDbPolyFaceMeshVertex
 10
0.0090210977941751
 20
0.3541666567325592
 30
-0.0052083334885538
 70
   192
  0
VERTEX
  5
6A
330
49
100
AcDbEntity
  8
0
 62
     9
100
AcDbVertex
100
AcDbPolyFaceMeshVertex
 10
0.0075759193859994
 20
0.3541666567325592
 30
-0.0071492930874228
 70
   192
  0
VERTEX
  5
6B
330
49
100
AcDbEntity
  8
0
 62
     9
100
AcDbVertex
100
AcDbPolyFaceMeshVertex
 10
0.0057224459014833
 20
0.3541666567325592
 30
-0.0087040541693568
 70
   192
  0
VERTEX
  5
6C
330
49
100
AcDbEntity
  8
0
 62
     9
100
AcDbVertex
100
AcDbPolyFaceMeshVertex
 10
0.0090210977941751
 20
0.3541666567325592
 30
0.0052083334885538
 70
   192
  0
VERTEX
  5
6D
330
49
100
AcDbEntity
  8
0
 62
     9
100
AcDbVertex
100
AcDbPolyFaceMeshVertex
 10
-0.0090210977941751
 20
0.3541666567325592
 30
0.0052083334885538
 70
   192
  0
VERTEX
  5
6E
330
49
100
AcDbEntity
  8
0
 62
     9
100
AcDbVertex
100
AcDbPolyFaceMeshVertex
 10
-0.0075759193859994
 20
0.3541666567325592
 30
0.0071492930874228
 70
   192
  0
VERTEX
  5
6F
330
49
100
AcDbEntity
  8
0
 62
     9
100
AcDbVertex
100
AcDbPolyFaceMeshVertex
 10
-0.0057224459014833
 20
0.3541666567325592
 30
0.0087040541693568
 70
   192
  0
VERTEX
  5
70
330
49
100
AcDbEntity
  8
0
 62
     9
100
AcDbVertex
100
AcDbPolyFaceMeshVertex
 10
-0.0035607770550996
 20
0.3541666567325592
 30
0.0097891679033637
 70
   192
  0
VERTEX
  5
71
330
49
100
AcDbEntity
  8
0
 62
     9
100
AcDbVertex
100
AcDbPolyFaceMeshVertex
 10
-0.0012074996484444
 20
0.3541666567325592
 30
0.0103464433923364
 70
   192
  0
VERTEX
  5
72
330
49
100
AcDbEntity
  8
0
 62
     9
100
AcDbVertex
100
AcDbPolyFaceMeshVertex
 10
0.0012106189969927
 20
0.3541666567325592
 30
0.0103460792452097
 70
   192
  0
VERTEX
  5
73
330
49
100
AcDbEntity
  8
0
 62
     9
100
AcDbVertex
100
AcDbPolyFaceMeshVertex
 10
0.0035633954685181
 20
0.3541666567325592
 30
0.0097882151603699
 70
   192
  0
VERTEX
  5
74
330
49
100
AcDbEntity
  8
0
 62
     9
100
AcDbVertex
100
AcDbPolyFaceMeshVertex
 10
0.0057241837494075
 20
0.3541666567325592
 30
0.0087029114365578
 70
   192
  0
VERTEX
  5
75
330
49
100
AcDbEntity
  8
0
 62
     9
100
AcDbVertex
100
AcDbPolyFaceMeshVertex
 10
0.0075766337104142
 20
0.3541666567325592
 30
0.0071485359221697
 70
   192
  0
VERTEX
  5
76
330
49
100
AcDbEntity
  8
0
 62
     9
100
AcDbVertex
100
AcDbPolyFaceMeshVertex
 10
0.0104166669771075
 20
0.3494979739189148
 30
0.0000000000000324
 70
   192
  0
VERTEX
  5
77
330
49
100
AcDbEntity
  8
0
 62
     9
100
AcDbVertex
100
AcDbPolyFaceMeshVertex
 10
0.0102584138512611
 20
0.3493874967098236
 30
0.0018088351935148
 70
   192
  0
VERTEX
  5
78
330
49
100
AcDbEntity
  8
0
 62
     9
100
AcDbVertex
100
AcDbPolyFaceMeshVertex
 10
0.0097884647548199
 20
0.3490593731403351
 30
0.0035627097822726
 70
   192
  0
VERTEX
  5
79
330
49
100
AcDbEntity
  8
0
 62
     9
100
AcDbVertex
100
AcDbPolyFaceMeshVertex
 10
0.0090210977941751
 20
0.3485235869884491
 30
0.0052083334885538
 70
   192
  0
VERTEX
  5
7A
330
49
100
AcDbEntity
  8
0
 62
     9
100
AcDbVertex
100
AcDbPolyFaceMeshVertex
 10
0.0090210977941751
 20
0.3541666567325592
 30
0.0052083334885538
 70
   192
  0
VERTEX
  5
7B
330
49
100
AcDbEntity
  8
0
 62
     9
100
AcDbVertex
100
AcDbPolyFaceMeshVertex
 10
0.0075766337104142
 20
0.3541666567325592
 30
0.0071485359221697
 70
   192
  0
VERTEX
  5
7C
330
49
100
AcDbEntity
  8
0
 62
     9
100
AcDbVertex
100
AcDbPolyFaceMeshVertex
 10
0.0057241837494075
 20
0.3541666567325592
 30
0.0087029114365578
 70
   192
  0
VERTEX
  5
7D
330
49
100
AcDbEntity
  8
0
 62
     9
100
AcDbVertex
100
AcDbPolyFaceMeshVertex
 10
0.0035633954685181
 20
0.3541666567325592
 30
0.0097882151603699
 70
   192
  0
VERTEX
  5
7E
330
49
100
AcDbEntity
  8
0
 62
     9
100
AcDbVertex
100
AcDbPolyFaceMeshVertex
 10
0.0012106189969927
 20
0.3541666567325592
 30
0.0103460792452097
 70
   192
  0
VERTEX
  5
7F
330
49
100
AcDbEntity
  8
0
 62
     9
100
AcDbVertex
100
AcDbPolyFaceMeshVertex
 10
-0.0012074996484444
 20
0.3541666567325592
 30
0.0103464433923364
 70
   192
  0
VERTEX
  5
80
330
49
100
AcDbEntity
  8
0
 62
     9
100
AcDbVertex
100
AcDbPolyFaceMeshVertex
 10
-0.0035607770550996
 20
0.3541666567325592
 30
0.0097891679033637
 70
   192
  0
VERTEX
  5
81
330
49
100
AcDbEntity
  8
0
 62
     9
100
AcDbVertex
100
AcDbPolyFaceMeshVertex
 10
-0.0057224459014833
 20
0.3541666567325592
 30
0.0087040541693568
 70
   192
  0
VERTEX
  5
82
330
49
100
AcDbEntity
  8
0
 62
     9
100
AcDbVertex
100
AcDbPolyFaceMeshVertex
 10
-0.0075759193859994
 20
0.3541666567325592
 30
0.0071492930874228
 70
   192
  0
VERTEX
  5
83
330
49
100
AcDbEntity
  8
0
 62
     9
100
AcDbVertex
100
AcDbPolyFaceMeshVertex
 10
-0.0090210977941751
 20
0.3541666567325592
 30
0.0052083334885538
 70
   192
  0
VERTEX
  5
84
330
49
100
AcDbEntity
  8
0
 62
     9
100
AcDbVertex
100
AcDbPolyFaceMeshVertex
 10
-0.0090210977941751
 20
0.3485235869884491
 30
0.0052083334885538
 70
   192
  0
VERTEX
  5
85
330
49
100
AcDbEntity
  8
0
 62
     9
100
AcDbVertex
100
AcDbPolyFaceMeshVertex
 10
-0.0097884647548199
 20
0.3490593731403351
 30
0.0035627097822726
 70
   192
  0
VERTEX
  5
86
330
49
100
AcDbEntity
  8
0
 62
     9
100
AcDbVertex
100
AcDbPolyFaceMeshVertex
 10
-0.0102584138512611
 20
0.3493874967098236
 30
0.0018088351935148
 70
   192
  0
VERTEX
  5
87
330
49
100
AcDbEntity
  8
0
 62
     9
100
AcDbVertex
100
AcDbPolyFaceMeshVertex
 10
-0.0104166669771075
 20
0.3494979739189148
 30
0.0000000000000326
 70
   192
  0
VERTEX
  5
88
330
49
100
AcDbEntity
  8
0
 62
     9
100
AcDbVertex
100
AcDbPolyFaceMeshVertex
 10
-0.0104166669771075
 20
-0.0000000000001079
 30
0.0000000000000278
 70
   192
  0
VERTEX
  5
89
330
49
100
AcDbEntity
  8
0
 62
     9
100
AcDbVertex
100
AcDbPolyFaceMeshVertex
 10
-0.0100617269054055
 20
-0.0000000000001079
 30
0.002696031704545
 70
   192
  0
VERTEX
  5
8A
330
49
100
AcDbEntity
  8
0
 62
     9
100
AcDbVertex
100
AcDbPolyFaceMeshVertex
 10
-0.0090210977941751
 20
-0.000000000000108
 30
0.0052083334885538
 70
   192
  0
VERTEX
  5
8B
330
49
100
AcDbEntity
  8
0
 62
     9
100
AcDbVertex
100
AcDbPolyFaceMeshVertex
 10
-0.0073656956665218
 20
-0.000000000000108
 30
0.0073656956665218
 70
   192
  0
VERTEX
  5
8C
330
49
100
AcDbEntity
  8
0
 62
     9
100
AcDbVertex
100
AcDbPolyFaceMeshVertex
 10
-0.0052083334885538
 20
-0.000000000000108
 30
0.0090210977941751
 70
   192
  0
VERTEX
  5
8D
330
49
100
AcDbEntity
  8
0
 62
     9
100
AcDbVertex
100
AcDbPolyFaceMeshVertex
 10
-0.002696031704545
 20
-0.000000000000108
 30
0.0100617269054055
 70
   192
  0
VERTEX
  5
8E
330
49
100
AcDbEntity
  8
0
 62
     9
100
AcDbVertex
100
AcDbPolyFaceMeshVertex
 10
0.0000000000000618
 20
-0.000000000000108
 30
0.0104166669771075
 70
   192
  0
VERTEX
  5
8F
330
49
100
AcDbEntity
  8
0
 62
     9
100
AcDbVertex
100
AcDbPolyFaceMeshVertex
 10
0.002696031704545
 20
-0.000000000000108
 30
0.0100617269054055
 70
   192
  0
VERTEX
  5
90
330
49
100
AcDbEntity
  8
0
 62
     9
100
AcDbVertex
100
AcDbPolyFaceMeshVertex
 10
0.0052083334885538
 20
-0.000000000000108
 30
0.0090210977941751
 70
   192
  0
VERTEX
  5
91
330
49
100
AcDbEntity
  8
0
 62
     9
100
AcDbVertex
100
AcDbPolyFaceMeshVertex
 10
0.0073656956665218
 20
-0.000000000000108
 30
0.0073656956665218
 70
   192
  0
VERTEX
  5
92
330
49
100
AcDbEntity
  8
0
 62
     9
100
AcDbVertex
100
AcDbPolyFaceMeshVertex
 10
0.0090210977941751
 20
-0.000000000000108
 30
0.0052083334885538
 70
   192
  0
VERTEX
  5
93
330
49
100
AcDbEntity
  8
0
 62
     9
100
AcDbVertex
100
AcDbPolyFaceMeshVertex
 10
0.0100617269054055
 20
-0.0000000000001079
 30
0.002696031704545
 70
   192
  0
VERTEX
  5
94
330
49
100
AcDbEntity
  8
0
 62
     9
100
AcDbVertex
100
AcDbPolyFaceMeshVertex
 10
0.0104166669771075
 20
-0.0000000000001079
 30
0.0000000000000276
 70
   192
  0
VERTEX
  5
95
330
49
100
AcDbEntity
  8
0
 62
     9
100
AcDbVertex
100
AcDbPolyFaceMeshVertex
 10
-0.0102584138512611
 20
0.3493874967098236
 30
-0.0018088351935148
 70
   192
  0
VERTEX
  5
96
330
49
100
AcDbEntity
  8
0
 62
     9
100
AcDbVertex
100
AcDbPolyFaceMeshVertex
 10
-0.0097884647548199
 20
0.3490593731403351
 30
-0.0035627097822726
 70
   192
  0
VERTEX
  5
97
330
49
100
AcDbEntity
  8
0
 62
     9
100
AcDbVertex
100
AcDbPolyFaceMeshVertex
 10
-0.0090210977941751
 20
0.3485235869884491
 30
-0.0052083334885538
 70
   192
  0
VERTEX
  5
98
330
49
100
AcDbEntity
  8
0
 62
     9
100
AcDbVertex
100
AcDbPolyFaceMeshVertex
 10
-0.0090210977941751
 20
0.3541666567325592
 30
-0.0052083334885538
 70
   192
  0
VERTEX
  5
99
330
49
100
AcDbEntity
  8
0
 62
     9
100
AcDbVertex
100
AcDbPolyFaceMeshVertex
 10
-0.0075766337104142
 20
0.3541666567325592
 30
-0.0071485359221697
 70
   192
  0
VERTEX
  5
9A
330
49
100
AcDbEntity
  8
0
 62
     9
100
AcDbVertex
100
AcDbPolyFaceMeshVertex
 10
-0.0057241837494075
 20
0.3541666567325592
 30
-0.0087029114365578
 70
   192
  0
VERTEX
  5
9B
330
49
100
AcDbEntity
  8
0
 62
     9
100
AcDbVertex
100
AcDbPolyFaceMeshVertex
 10
-0.0035633954685181
 20
0.3541666567325592
 30
-0.0097882151603699
 70
   192
  0
VERTEX
  5
9C
330
49
100
AcDbEntity
  8
0
 62
     9
100
AcDbVertex
100
AcDbPolyFaceMeshVertex
 10
-0.0012106189969927
 20
0.3541666567325592
 30
-0.0103460792452097
 70
   192
  0
VERTEX
  5
9D
330
49
100
AcDbEntity
  8
0
 62
     9
100
AcDbVertex
100
AcDbPolyFaceMeshVertex
 10
0.0012074996484444
 20
0.3541666567325592
 30
-0.0103464433923364
 70
   192
  0
VERTEX
  5
9E
330
49
100
AcDbEntity
  8
0
 62
     9
100
AcDbVertex
100
AcDbPolyFaceMeshVertex
 10
0.0035607770550996
 20
0.3541666567325592
 30
-0.0097891679033637
 70
   192
  0
VERTEX
  5
9F
330
49
100
AcDbEntity
  8
0
 62
     9
100
AcDbVertex
100
AcDbPolyFaceMeshVertex
 10
0.0057224459014833
 20
0.3541666567325592
 30
-0.0087040541693568
 70
   192
  0
VERTEX
  5
A0
330
49
100
AcDbEntity
  8
0
 62
     9
100
AcDbVertex
100
AcDbPolyFaceMeshVertex
 10
0.0075759193859994
 20
0.3541666567325592
 30
-0.0071492930874228
 70
   192
  0
VERTEX
  5
A1
330
49
100
AcDbEntity
  8
0
 62
     9
100
AcDbVertex
100
AcDbPolyFaceMeshVertex
 10
0.0090210977941751
 20
0.3541666567325592
 30
-0.0052083334885538
 70
   192
  0
VERTEX
  5
A2
330
49
100
AcDbEntity
  8
0
 62
     9
100
AcDbVertex
100
AcDbPolyFaceMeshVertex
 10
0.0090210977941751
 20
0.3485235869884491
 30
-0.0052083334885538
 70
   192
  0
VERTEX
  5
A3
330
49
100
AcDbEntity
  8
0
 62
     9
100
AcDbVertex
100
AcDbPolyFaceMeshVertex
 10
0.0097884647548199
 20
0.3490593731403351
 30
-0.0035627097822726
 70
   192
  0
VERTEX
  5
A4
330
49
100
AcDbEntity
  8
0
 62
     9
100
AcDbVertex
100
AcDbPolyFaceMeshVertex
 10
0.0102584138512611
 20
0.3493874967098236
 30
-0.0018088351935148
 70
   192
  0
VERTEX
  5
A5
330
49
100
AcDbEntity
  8
0
 62
     9
100
AcDbVertex
100
AcDbPolyFaceMeshVertex
 10
0.0104166669771075
 20
0.3494979739189148
 30
0.0000000000000324
 70
   192
  0
VERTEX
  5
A6
330
49
100
AcDbEntity
  8
0
 62
     9
100
AcDbVertex
100
AcDbPolyFaceMeshVertex
 10
0.0104166669771075
 20
-0.0000000000001079
 30
0.0000000000000276
 70
   192
  0
VERTEX
  5
A7
330
49
100
AcDbEntity
  8
0
 62
     9
100
AcDbVertex
100
AcDbPolyFaceMeshVertex
 10
0.0100617269054055
 20
-0.0000000000001078
 30
-0.002696031704545
 70
   192
  0
VERTEX
  5
A8
330
49
100
AcDbEntity
  8
0
 62
     9
100
AcDbVertex
100
AcDbPolyFaceMeshVertex
 10
0.0090210977941751
 20
-0.0000000000001078
 30
-0.0052083334885538
 70
   192
  0
VERTEX
  5
A9
330
49
100
AcDbEntity
  8
0
 62
     9
100
AcDbVertex
100
AcDbPolyFaceMeshVertex
 10
0.0073656956665218
 20
-0.0000000000001078
 30
-0.0073656956665218
 70
   192
  0
VERTEX
  5
AA
330
49
100
AcDbEntity
  8
0
 62
     9
100
AcDbVertex
100
AcDbPolyFaceMeshVertex
 10
0.0052083334885538
 20
-0.0000000000001078
 30
-0.0090210977941751
 70
   192
  0
VERTEX
  5
AB
330
49
100
AcDbEntity
  8
0
 62
     9
100
AcDbVertex
100
AcDbPolyFaceMeshVertex
 10
0.002696031704545
 20
-0.0000000000001077
 30
-0.0100617269054055
 70
   192
  0
VERTEX
  5
AC
330
49
100
AcDbEntity
  8
0
 62
     9
100
AcDbVertex
100
AcDbPolyFaceMeshVertex
 10
0.0000000000000616
 20
-0.0000000000001077
 30
-0.0104166669771075
 70
   192
  0
VERTEX
  5
AD
330
49
100
AcDbEntity
  8
0
 62
     9
100
AcDbVertex
100
AcDbPolyFaceMeshVertex
 10
-0.002696031704545
 20
-0.0000000000001077
 30
-0.0100617269054055
 70
   192
  0
VERTEX
  5
AE
330
49
100
AcDbEntity
  8
0
 62
     9
100
AcDbVertex
100
AcDbPolyFaceMeshVertex
 10
-0.0052083334885538
 20
-0.0000000000001078
 30
-0.0090210977941751
 70
   192
  0
VERTEX
  5
AF
330
49
100
AcDbEntity
  8
0
 62
     9
100
AcDbVertex
100
AcDbPolyFaceMeshVertex
 10
-0.0073656956665218
 20
-0.0000000000001078
 30
-0.0073656956665218
 70
   192
  0
VERTEX
  5
B0
330
49
100
AcDbEntity
  8
0
 62
     9
100
AcDbVertex
100
AcDbPolyFaceMeshVertex
 10
-0.0090210977941751
 20
-0.0000000000001078
 30
-0.0052083334885538
 70
   192
  0
VERTEX
  5
B1
330
49
100
AcDbEntity
  8
0
 62
     9
100
AcDbVertex
100
AcDbPolyFaceMeshVertex
 10
-0.0100617269054055
 20
-0.0000000000001078
 30
-0.002696031704545
 70
   192
  0
VERTEX
  5
B2
330
49
100
AcDbEntity
  8
0
 62
     9
100
AcDbVertex
100
AcDbPolyFaceMeshVertex
 10
-0.0104166669771075
 20
-0.0000000000001079
 30
0.0000000000000277
 70
   192
  0
VERTEX
  5
B3
330
49
100
AcDbEntity
  8
0
 62
     9
100
AcDbVertex
100
AcDbPolyFaceMeshVertex
 10
0.020833333954215
 20
0.3567708432674408
 30
0.0052083334885538
 70
   192
  0
VERTEX
  5
B4
330
49
100
AcDbEntity
  8
0
 62
     9
100
AcDbVertex
100
AcDbPolyFaceMeshVertex
 10
0.020833333954215
 20
0.40625
 30
0.0052083334885538
 70
   192
  0
VERTEX
  5
B5
330
49
100
AcDbEntity
  8
0
 62
     9
100
AcDbVertex
100
AcDbPolyFaceMeshVertex
 10
-0.020833333954215
 20
0.40625
 30
0.0052083334885538
 70
   192
  0
VERTEX
  5
B6
330
49
100
AcDbEntity
  8
0
 62
     9
100
AcDbVertex
100
AcDbPolyFaceMeshVertex
 10
-0.020833333954215
 20
0.3567708432674408
 30
0.0052083334885538
 70
   192
  0
VERTEX
  5
B7
330
49
100
AcDbEntity
  8
0
 62
     9
100
AcDbVertex
100
AcDbPolyFaceMeshVertex
 10
-0.0090210977941751
 20
0.3485235869884491
 30
0.0052083334885538
 70
   192
  0
VERTEX
  5
B8
330
49
100
AcDbEntity
  8
0
 62
     9
100
AcDbVertex
100
AcDbPolyFaceMeshVertex
 10
-0.0090210977941751
 20
0.3541666567325592
 30
0.0052083334885538
 70
   192
  0
VERTEX
  5
B9
330
49
100
AcDbEntity
  8
0
 62
     9
100
AcDbVertex
100
AcDbPolyFaceMeshVertex
 10
0.0090210977941751
 20
0.3541666567325592
 30
0.0052083334885538
 70
   192
  0
VERTEX
  5
BA
330
49
100
AcDbEntity
  8
0
 62
     9
100
AcDbVertex
100
AcDbPolyFaceMeshVertex
 10
0.0090210977941751
 20
0.3485235869884491
 30
0.0052083334885538
 70
   192
  0
VERTEX
  5
BB
330
49
100
AcDbEntity
  8
0
 62
     9
100
AcDbVertex
100
AcDbPolyFaceMeshVertex
 10
0.0100617269054055
 20
0.3776960372924805
 30
0.0052083334885538
 70
   192
  0
VERTEX
  5
BC
330
49
100
AcDbEntity
  8
0
 62
     9
100
AcDbVertex
100
AcDbPolyFaceMeshVertex
 10
0.0090210977941751
 20
0.3802083432674408
 30
0.0052083334885538
 70
   192
  0
VERTEX
  5
BD
330
49
100
AcDbEntity
  8
0
 62
     9
100
AcDbVertex
100
AcDbPolyFaceMeshVertex
 10
0.0073656956665218
 20
0.3823657035827637
 30
0.0052083334885538
 70
   192
  0
VERTEX
  5
BE
330
49
100
AcDbEntity
  8
0
 62
     9
100
AcDbVertex
100
AcDbPolyFaceMeshVertex
 10
0.0052083334885538
 20
0.3840211033821106
 30
0.0052083334885538
 70
   192
  0
VERTEX
  5
BF
330
49
100
AcDbEntity
  8
0
 62
     9
100
AcDbVertex
100
AcDbPolyFaceMeshVertex
 10
0.002696031704545
 20
0.3850617408752441
 30
0.0052083334885538
 70
   192
  0
VERTEX
  5
C0
330
49
100
AcDbEntity
  8
0
 62
     9
100
AcDbVertex
100
AcDbPolyFaceMeshVertex
 10
0.0000000000000624
 20
0.3854166567325592
 30
0.0052083334885538
 70
   192
  0
VERTEX
  5
C1
330
49
100
AcDbEntity
  8
0
 62
     9
100
AcDbVertex
100
AcDbPolyFaceMeshVertex
 10
-0.002696031704545
 20
0.3850617408752441
 30
0.0052083334885538
 70
   192
  0
VERTEX
  5
C2
330
49
100
AcDbEntity
  8
0
 62
     9
100
AcDbVertex
100
AcDbPolyFaceMeshVertex
 10
-0.0052083334885538
 20
0.3840211033821106
 30
0.0052083334885538
 70
   192
  0
VERTEX
  5
C3
330
49
100
AcDbEntity
  8
0
 62
     9
100
AcDbVertex
100
AcDbPolyFaceMeshVertex
 10
-0.0073656956665218
 20
0.3823657035827637
 30
0.0052083334885538
 70
   192
  0
VERTEX
  5
C4
330
49
100
AcDbEntity
  8
0
 62
     9
100
AcDbVertex
100
AcDbPolyFaceMeshVertex
 10
-0.0090210977941751
 20
0.3802083432674408
 30
0.0052083334885538
 70
   192
  0
VERTEX
  5
C5
330
49
100
AcDbEntity
  8
0
 62
     9
100
AcDbVertex
100
AcDbPolyFaceMeshVertex
 10
-0.0100617269054055
 20
0.3776960372924805
 30
0.0052083334885538
 70
   192
  0
VERTEX
  5
C6
330
49
100
AcDbEntity
  8
0
 62
     9
100
AcDbVertex
100
AcDbPolyFaceMeshVertex
 10
-0.0104166669771075
 20
0.375
 30
0.0052083334885538
 70
   192
  0
VERTEX
  5
C7
330
49
100
AcDbEntity
  8
0
 62
     9
100
AcDbVertex
100
AcDbPolyFaceMeshVertex
 10
-0.0100617269054055
 20
0.3723039627075195
 30
0.0052083334885538
 70
   192
  0
VERTEX
  5
C8
330
49
100
AcDbEntity
  8
0
 62
     9
100
AcDbVertex
100
AcDbPolyFaceMeshVertex
 10
-0.0090210977941751
 20
0.3697916567325592
 30
0.0052083334885538
 70
   192
  0
VERTEX
  5
C9
330
49
100
AcDbEntity
  8
0
 62
     9
100
AcDbVertex
100
AcDbPolyFaceMeshVertex
 10
-0.0073656956665218
 20
0.3676342964172363
 30
0.0052083334885538
 70
   192
  0
VERTEX
  5
CA
330
49
100
AcDbEntity
  8
0
 62
     9
100
AcDbVertex
100
AcDbPolyFaceMeshVertex
 10
-0.0052083334885538
 20
0.3659788966178894
 30
0.0052083334885538
 70
   192
  0
VERTEX
  5
CB
330
49
100
AcDbEntity
  8
0
 62
     9
100
AcDbVertex
100
AcDbPolyFaceMeshVertex
 10
-0.002696031704545
 20
0.3649382591247559
 30
0.0052083334885538
 70
   192
  0
VERTEX
  5
CC
330
49
100
AcDbEntity
  8
0
 62
     9
100
AcDbVertex
100
AcDbPolyFaceMeshVertex
 10
0.0000000000000622
 20
0.3645833432674408
 30
0.0052083334885538
 70
   192
  0
VERTEX
  5
CD
330
49
100
AcDbEntity
  8
0
 62
     9
100
AcDbVertex
100
AcDbPolyFaceMeshVertex
 10
0.002696031704545
 20
0.3649382591247559
 30
0.0052083334885538
 70
   192
  0
VERTEX
  5
CE
330
49
100
AcDbEntity
  8
0
 62
     9
100
AcDbVertex
100
AcDbPolyFaceMeshVertex
 10
0.0052083334885538
 20
0.3659788966178894
 30
0.0052083334885538
 70
   192
  0
VERTEX
  5
CF
330
49
100
AcDbEntity
  8
0
 62
     9
100
AcDbVertex
100
AcDbPolyFaceMeshVertex
 10
0.0073656956665218
 20
0.3676342964172363
 30
0.0052083334885538
 70
   192
  0
VERTEX
  5
D0
330
49
100
AcDbEntity
  8
0
 62
     9
100
AcDbVertex
100
AcDbPolyFaceMeshVertex
 10
0.0090210977941751
 20
0.3697916567325592
 30
0.0052083334885538
 70
   192
  0
VERTEX
  5
D1
330
49
100
AcDbEntity
  8
0
 62
     9
100
AcDbVertex
100
AcDbPolyFaceMeshVertex
 10
0.0100617269054055
 20
0.3723039627075195
 30
0.0052083334885538
 70
   192
  0
VERTEX
  5
D2
330
49
100
AcDbEntity
  8
0
 62
     9
100
AcDbVertex
100
AcDbPolyFaceMeshVertex
 10
0.0104166669771075
 20
0.375
 30
0.0052083334885538
 70
   192
  0
VERTEX
  5
D3
330
49
100
AcDbEntity
  8
0
 62
     9
100
AcDbVertex
100
AcDbPolyFaceMeshVertex
 10
-0.020833333954215
 20
0.3567708432674408
 30
-0.0052083334885538
 70
   192
  0
VERTEX
  5
D4
330
49
100
AcDbEntity
  8
0
 62
     9
100
AcDbVertex
100
AcDbPolyFaceMeshVertex
 10
-0.020833333954215
 20
0.40625
 30
-0.0052083334885538
 70
   192
  0
VERTEX
  5
D5
330
49
100
AcDbEntity
  8
0
 62
     9
100
AcDbVertex
100
AcDbPolyFaceMeshVertex
 10
0.020833333954215
 20
0.40625
 30
-0.0052083334885538
 70
   192
  0
VERTEX
  5
D6
330
49
100
AcDbEntity
  8
0
 62
     9
100
AcDbVertex
100
AcDbPolyFaceMeshVertex
 10
0.020833333954215
 20
0.3567708432674408
 30
-0.0052083334885538
 70
   192
  0
VERTEX
  5
D7
330
49
100
AcDbEntity
  8
0
 62
     9
100
AcDbVertex
100
AcDbPolyFaceMeshVertex
 10
0.0090210977941751
 20
0.3485235869884491
 30
-0.0052083334885538
 70
   192
  0
VERTEX
  5
D8
330
49
100
AcDbEntity
  8
0
 62
     9
100
AcDbVertex
100
AcDbPolyFaceMeshVertex
 10
0.0090210977941751
 20
0.3541666567325592
 30
-0.0052083334885538
 70
   192
  0
VERTEX
  5
D9
330
49
100
AcDbEntity
  8
0
 62
     9
100
AcDbVertex
100
AcDbPolyFaceMeshVertex
 10
-0.0090210977941751
 20
0.3541666567325592
 30
-0.0052083334885538
 70
   192
  0
VERTEX
  5
DA
330
49
100
AcDbEntity
  8
0
 62
     9
100
AcDbVertex
100
AcDbPolyFaceMeshVertex
 10
-0.0090210977941751
 20
0.3485235869884491
 30
-0.0052083334885538
 70
   192
  0
VERTEX
  5
DB
330
49
100
AcDbEntity
  8
0
 62
     9
100
AcDbVertex
100
AcDbPolyFaceMeshVertex
 10
-0.0100617269054055
 20
0.3776960372924805
 30
-0.0052083334885538
 70
   192
  0
VERTEX
  5
DC
330
49
100
AcDbEntity
  8
0
 62
     9
100
AcDbVertex
100
AcDbPolyFaceMeshVertex
 10
-0.0090210977941751
 20
0.3802083432674408
 30
-0.0052083334885538
 70
   192
  0
VERTEX
  5
DD
330
49
100
AcDbEntity
  8
0
 62
     9
100
AcDbVertex
100
AcDbPolyFaceMeshVertex
 10
-0.0073656956665218
 20
0.3823657035827637
 30
-0.0052083334885538
 70
   192
  0
VERTEX
  5
DE
330
49
100
AcDbEntity
  8
0
 62
     9
100
AcDbVertex
100
AcDbPolyFaceMeshVertex
 10
-0.0052083334885538
 20
0.3840211033821106
 30
-0.0052083334885538
 70
   192
  0
VERTEX
  5
DF
330
49
100
AcDbEntity
  8
0
 62
     9
100
AcDbVertex
100
AcDbPolyFaceMeshVertex
 10
-0.002696031704545
 20
0.3850617408752441
 30
-0.0052083334885538
 70
   192
  0
VERTEX
  5
E0
330
49
100
AcDbEntity
  8
0
 62
     9
100
AcDbVertex
100
AcDbPolyFaceMeshVertex
 10
0.0000000000000624
 20
0.3854166567325592
 30
-0.0052083334885538
 70
   192
  0
VERTEX
  5
E1
330
49
100
AcDbEntity
  8
0
 62
     9
100
AcDbVertex
100
AcDbPolyFaceMeshVertex
 10
0.002696031704545
 20
0.3850617408752441
 30
-0.0052083334885538
 70
   192
  0
VERTEX
  5
E2
330
49
100
AcDbEntity
  8
0
 62
     9
100
AcDbVertex
100
AcDbPolyFaceMeshVertex
 10
0.0052083334885538
 20
0.3840211033821106
 30
-0.0052083334885538
 70
   192
  0
VERTEX
  5
E3
330
49
100
AcDbEntity
  8
0
 62
     9
100
AcDbVertex
100
AcDbPolyFaceMeshVertex
 10
0.0073656956665218
 20
0.3823657035827637
 30
-0.0052083334885538
 70
   192
  0
VERTEX
  5
E4
330
49
100
AcDbEntity
  8
0
 62
     9
100
AcDbVertex
100
AcDbPolyFaceMeshVertex
 10
0.0090210977941751
 20
0.3802083432674408
 30
-0.0052083334885538
 70
   192
  0
VERTEX
  5
E5
330
49
100
AcDbEntity
  8
0
 62
     9
100
AcDbVertex
100
AcDbPolyFaceMeshVertex
 10
0.0100617269054055
 20
0.3776960372924805
 30
-0.0052083334885538
 70
   192
  0
VERTEX
  5
E6
330
49
100
AcDbEntity
  8
0
 62
     9
100
AcDbVertex
100
AcDbPolyFaceMeshVertex
 10
0.0104166669771075
 20
0.375
 30
-0.0052083334885538
 70
   192
  0
VERTEX
  5
E7
330
49
100
AcDbEntity
  8
0
 62
     9
100
AcDbVertex
100
AcDbPolyFaceMeshVertex
 10
0.0100617269054055
 20
0.3723039627075195
 30
-0.0052083334885538
 70
   192
  0
VERTEX
  5
E8
330
49
100
AcDbEntity
  8
0
 62
     9
100
AcDbVertex
100
AcDbPolyFaceMeshVertex
 10
0.0090210977941751
 20
0.3697916567325592
 30
-0.0052083334885538
 70
   192
  0
VERTEX
  5
E9
330
49
100
AcDbEntity
  8
0
 62
     9
100
AcDbVertex
100
AcDbPolyFaceMeshVertex
 10
0.0073656956665218
 20
0.3676342964172363
 30
-0.0052083334885538
 70
   192
  0
VERTEX
  5
EA
330
49
100
AcDbEntity
  8
0
 62
     9
100
AcDbVertex
100
AcDbPolyFaceMeshVertex
 10
0.0052083334885538
 20
0.3659788966178894
 30
-0.0052083334885538
 70
   192
  0
VERTEX
  5
EB
330
49
100
AcDbEntity
  8
0
 62
     9
100
AcDbVertex
100
AcDbPolyFaceMeshVertex
 10
0.002696031704545
 20
0.3649382591247559
 30
-0.0052083334885538
 70
   192
  0
VERTEX
  5
EC
330
49
100
AcDbEntity
  8
0
 62
     9
100
AcDbVertex
100
AcDbPolyFaceMeshVertex
 10
0.0000000000000622
 20
0.3645833432674408
 30
-0.0052083334885538
 70
   192
  0
VERTEX
  5
ED
330
49
100
AcDbEntity
  8
0
 62
     9
100
AcDbVertex
100
AcDbPolyFaceMeshVertex
 10
-0.002696031704545
 20
0.3649382591247559
 30
-0.0052083334885538
 70
   192
  0
VERTEX
  5
EE
330
49
100
AcDbEntity
  8
0
 62
     9
100
AcDbVertex
100
AcDbPolyFaceMeshVertex
 10
-0.0052083334885538
 20
0.3659788966178894
 30
-0.0052083334885538
 70
   192
  0
VERTEX
  5
EF
330
49
100
AcDbEntity
  8
0
 62
     9
100
AcDbVertex
100
AcDbPolyFaceMeshVertex
 10
-0.0073656956665218
 20
0.3676342964172363
 30
-0.0052083334885538
 70
   192
  0
VERTEX
  5
F0
330
49
100
AcDbEntity
  8
0
 62
     9
100
AcDbVertex
100
AcDbPolyFaceMeshVertex
 10
-0.0090210977941751
 20
0.3697916567325592
 30
-0.0052083334885538
 70
   192
  0
VERTEX
  5
F1
330
49
100
AcDbEntity
  8
0
 62
     9
100
AcDbVertex
100
AcDbPolyFaceMeshVertex
 10
-0.0100617269054055
 20
0.3723039627075195
 30
-0.0052083334885538
 70
   192
  0
VERTEX
  5
F2
330
49
100
AcDbEntity
  8
0
 62
     9
100
AcDbVertex
100
AcDbPolyFaceMeshVertex
 10
-0.0104166669771075
 20
0.375
 30
-0.0052083334885538
 70
   192
  0
VERTEX
  5
F3
330
49
100
AcDbEntity
  8
0
 62
     9
100
AcDbVertex
100
AcDbPolyFaceMeshVertex
 10
-0.020833333954215
 20
0.40625
 30
0.0052083334885538
 70
   192
  0
VERTEX
  5
F4
330
49
100
AcDbEntity
  8
0
 62
     9
100
AcDbVertex
100
AcDbPolyFaceMeshVertex
 10
0.020833333954215
 20
0.40625
 30
0.0052083334885538
 70
   192
  0
VERTEX
  5
F5
330
49
100
AcDbEntity
  8
0
 62
     9
100
AcDbVertex
100
AcDbPolyFaceMeshVertex
 10
0.020833333954215
 20
0.40625
 30
-0.0052083334885538
 70
   192
  0
VERTEX
  5
F6
330
49
100
AcDbEntity
  8
0
 62
     9
100
AcDbVertex
100
AcDbPolyFaceMeshVertex
 10
-0.020833333954215
 20
0.40625
 30
-0.0052083334885538
 70
   192
  0
VERTEX
  5
F7
330
49
100
AcDbEntity
  8
0
 62
     9
100
AcDbVertex
100
AcDbPolyFaceMeshVertex
 10
-0.020833333954215
 20
0.3567708432674408
 30
0.0052083334885538
 70
   192
  0
VERTEX
  5
F8
330
49
100
AcDbEntity
  8
0
 62
     9
100
AcDbVertex
100
AcDbPolyFaceMeshVertex
 10
-0.020833333954215
 20
0.40625
 30
0.0052083334885538
 70
   192
  0
VERTEX
  5
F9
330
49
100
AcDbEntity
  8
0
 62
     9
100
AcDbVertex
100
AcDbPolyFaceMeshVertex
 10
-0.020833333954215
 20
0.40625
 30
-0.0052083334885538
 70
   192
  0
VERTEX
  5
FA
330
49
100
AcDbEntity
  8
0
 62
     9
100
AcDbVertex
100
AcDbPolyFaceMeshVertex
 10
-0.020833333954215
 20
0.3567708432674408
 30
-0.0052083334885538
 70
   192
  0
VERTEX
  5
FB
330
49
100
AcDbEntity
  8
0
 62
     9
100
AcDbVertex
100
AcDbPolyFaceMeshVertex
 10
-0.0102584138512611
 20
0.3493874967098236
 30
0.0018088351935148
 70
   192
  0
VERTEX
  5
FC
330
49
100
AcDbEntity
  8
0
 62
     9
100
AcDbVertex
100
AcDbPolyFaceMeshVertex
 10
-0.0097884647548199
 20
0.3490593731403351
 30
0.0035627097822726
 70
   192
  0
VERTEX
  5
FD
330
49
100
AcDbEntity
  8
0
 62
     9
100
AcDbVertex
100
AcDbPolyFaceMeshVertex
 10
-0.0090210977941751
 20
0.3485235869884491
 30
0.0052083334885538
 70
   192
  0
VERTEX
  5
FE
330
49
100
AcDbEntity
  8
0
 62
     9
100
AcDbVertex
100
AcDbPolyFaceMeshVertex
 10
-0.020833333954215
 20
0.3567708432674408
 30
0.0052083334885538
 70
   192
  0
VERTEX
  5
FF
330
49
100
AcDbEntity
  8
0
 62
     9
100
AcDbVertex
100
AcDbPolyFaceMeshVertex
 10
-0.020833333954215
 20
0.3567708432674408
 30
-0.0052083334885538
 70
   192
  0
VERTEX
  5
100
330
49
100
AcDbEntity
  8
0
 62
     9
100
AcDbVertex
100
AcDbPolyFaceMeshVertex
 10
-0.0090210977941751
 20
0.3485235869884491
 30
-0.0052083334885538
 70
   192
  0
VERTEX
  5
101
330
49
100
AcDbEntity
  8
0
 62
     9
100
AcDbVertex
100
AcDbPolyFaceMeshVertex
 10
-0.0097884647548199
 20
0.3490593731403351
 30
-0.0035627097822726
 70
   192
  0
VERTEX
  5
102
330
49
100
AcDbEntity
  8
0
 62
     9
100
AcDbVertex
100
AcDbPolyFaceMeshVertex
 10
-0.0102584138512611
 20
0.3493874967098236
 30
-0.0018088351935148
 70
   192
  0
VERTEX
  5
103
330
49
100
AcDbEntity
  8
0
 62
     9
100
AcDbVertex
100
AcDbPolyFaceMeshVertex
 10
-0.0104166669771075
 20
0.3494979739189148
 30
0.0000000000000326
 70
   192
  0
VERTEX
  5
104
330
49
100
AcDbEntity
  8
0
 62
     9
100
AcDbVertex
100
AcDbPolyFaceMeshVertex
 10
0.0090210977941751
 20
0.3485235869884491
 30
0.0052083334885538
 70
   192
  0
VERTEX
  5
105
330
49
100
AcDbEntity
  8
0
 62
     9
100
AcDbVertex
100
AcDbPolyFaceMeshVertex
 10
0.0097884647548199
 20
0.3490593731403351
 30
0.0035627097822726
 70
   192
  0
VERTEX
  5
106
330
49
100
AcDbEntity
  8
0
 62
     9
100
AcDbVertex
100
AcDbPolyFaceMeshVertex
 10
0.0102584138512611
 20
0.3493874967098236
 30
0.0018088351935148
 70
   192
  0
VERTEX
  5
107
330
49
100
AcDbEntity
  8
0
 62
     9
100
AcDbVertex
100
AcDbPolyFaceMeshVertex
 10
0.0104166669771075
 20
0.3494979739189148
 30
0.0000000000000325
 70
   192
  0
VERTEX
  5
108
330
49
100
AcDbEntity
  8
0
 62
     9
100
AcDbVertex
100
AcDbPolyFaceMeshVertex
 10
0.0102584138512611
 20
0.3493874967098236
 30
-0.0018088351935148
 70
   192
  0
VERTEX
  5
109
330
49
100
AcDbEntity
  8
0
 62
     9
100
AcDbVertex
100
AcDbPolyFaceMeshVertex
 10
0.0097884647548199
 20
0.3490593731403351
 30
-0.0035627097822726
 70
   192
  0
VERTEX
  5
10A
330
49
100
AcDbEntity
  8
0
 62
     9
100
AcDbVertex
100
AcDbPolyFaceMeshVertex
 10
0.0090210977941751
 20
0.3485235869884491
 30
-0.0052083334885538
 70
   192
  0
VERTEX
  5
10B
330
49
100
AcDbEntity
  8
0
 62
     9
100
AcDbVertex
100
AcDbPolyFaceMeshVertex
 10
0.020833333954215
 20
0.3567708432674408
 30
-0.0052083334885538
 70
   192
  0
VERTEX
  5
10C
330
49
100
AcDbEntity
  8
0
 62
     9
100
AcDbVertex
100
AcDbPolyFaceMeshVertex
 10
0.020833333954215
 20
0.3567708432674408
 30
0.0052083334885538
 70
   192
  0
VERTEX
  5
10D
330
49
100
AcDbEntity
  8
0
 62
     9
100
AcDbVertex
100
AcDbPolyFaceMeshVertex
 10
0.020833333954215
 20
0.40625
 30
0.0052083334885538
 70
   192
  0
VERTEX
  5
10E
330
49
100
AcDbEntity
  8
0
 62
     9
100
AcDbVertex
100
AcDbPolyFaceMeshVertex
 10
0.020833333954215
 20
0.3567708432674408
 30
0.0052083334885538
 70
   192
  0
VERTEX
  5
10F
330
49
100
AcDbEntity
  8
0
 62
     9
100
AcDbVertex
100
AcDbPolyFaceMeshVertex
 10
0.020833333954215
 20
0.3567708432674408
 30
-0.0052083334885538
 70
   192
  0
VERTEX
  5
110
330
49
100
AcDbEntity
  8
0
 62
     9
100
AcDbVertex
100
AcDbPolyFaceMeshVertex
 10
0.020833333954215
 20
0.40625
 30
-0.0052083334885538
 70
   192
  0
VERTEX
  5
111
330
49
100
AcDbEntity
  8
0
 62
     9
100
AcDbVertex
100
AcDbPolyFaceMeshVertex
 10
-0.0090210977941751
 20
0.3697916567325592
 30
-0.0052083334885538
 70
   192
  0
VERTEX
  5
112
330
49
100
AcDbEntity
  8
0
 62
     9
100
AcDbVertex
100
AcDbPolyFaceMeshVertex
 10
-0.0100617269054055
 20
0.3723039627075195
 30
-0.0052083334885538
 70
   192
  0
VERTEX
  5
113
330
49
100
AcDbEntity
  8
0
 62
     9
100
AcDbVertex
100
AcDbPolyFaceMeshVertex
 10
-0.0104166669771075
 20
0.375
 30
-0.0052083334885538
 70
   192
  0
VERTEX
  5
114
330
49
100
AcDbEntity
  8
0
 62
     9
100
AcDbVertex
100
AcDbPolyFaceMeshVertex
 10
-0.0100617269054055
 20
0.3776960372924805
 30
-0.0052083334885538
 70
   192
  0
VERTEX
  5
115
330
49
100
AcDbEntity
  8
0
 62
     9
100
AcDbVertex
100
AcDbPolyFaceMeshVertex
 10
-0.0090210977941751
 20
0.3802083432674408
 30
-0.0052083334885538
 70
   192
  0
VERTEX
  5
116
330
49
100
AcDbEntity
  8
0
 62
     9
100
AcDbVertex
100
AcDbPolyFaceMeshVertex
 10
-0.0073656956665218
 20
0.3823657035827637
 30
-0.0052083334885538
 70
   192
  0
VERTEX
  5
117
330
49
100
AcDbEntity
  8
0
 62
     9
100
AcDbVertex
100
AcDbPolyFaceMeshVertex
 10
-0.0052083334885538
 20
0.3840211033821106
 30
-0.0052083334885538
 70
   192
  0
VERTEX
  5
118
330
49
100
AcDbEntity
  8
0
 62
     9
100
AcDbVertex
100
AcDbPolyFaceMeshVertex
 10
-0.002696031704545
 20
0.3850617408752441
 30
-0.0052083334885538
 70
   192
  0
VERTEX
  5
119
330
49
100
AcDbEntity
  8
0
 62
     9
100
AcDbVertex
100
AcDbPolyFaceMeshVertex
 10
0.0000000000000623
 20
0.3854166567325592
 30
-0.0052083334885538
 70
   192
  0
VERTEX
  5
11A
330
49
100
AcDbEntity
  8
0
 62
     9
100
AcDbVertex
100
AcDbPolyFaceMeshVertex
 10
0.002696031704545
 20
0.3850617408752441
 30
-0.0052083334885538
 70
   192
  0
VERTEX
  5
11B
330
49
100
AcDbEntity
  8
0
 62
     9
100
AcDbVertex
100
AcDbPolyFaceMeshVertex
 10
0.0052083334885538
 20
0.3840211033821106
 30
-0.0052083334885538
 70
   192
  0
VERTEX
  5
11C
330
49
100
AcDbEntity
  8
0
 62
     9
100
AcDbVertex
100
AcDbPolyFaceMeshVertex
 10
0.0073656956665218
 20
0.3823657035827637
 30
-0.0052083334885538
 70
   192
  0
VERTEX
  5
11D
330
49
100
AcDbEntity
  8
0
 62
     9
100
AcDbVertex
100
AcDbPolyFaceMeshVertex
 10
0.0090210977941751
 20
0.3802083432674408
 30
-0.0052083334885538
 70
   192
  0
VERTEX
  5
11E
330
49
100
AcDbEntity
  8
0
 62
     9
100
AcDbVertex
100
AcDbPolyFaceMeshVertex
 10
0.0100617269054055
 20
0.3776960372924805
 30
-0.0052083334885538
 70
   192
  0
VERTEX
  5
11F
330
49
100
AcDbEntity
  8
0
 62
     9
100
AcDbVertex
100
AcDbPolyFaceMeshVertex
 10
0.0104166669771075
 20
0.375
 30
-0.0052083334885538
 70
   192
  0
VERTEX
  5
120
330
49
100
AcDbEntity
  8
0
 62
     9
100
AcDbVertex
100
AcDbPolyFaceMeshVertex
 10
0.0100617269054055
 20
0.3723039627075195
 30
-0.0052083334885538
 70
   192
  0
VERTEX
  5
121
330
49
100
AcDbEntity
  8
0
 62
     9
100
AcDbVertex
100
AcDbPolyFaceMeshVertex
 10
0.0090210977941751
 20
0.3697916567325592
 30
-0.0052083334885538
 70
   192
  0
VERTEX
  5
122
330
49
100
AcDbEntity
  8
0
 62
     9
100
AcDbVertex
100
AcDbPolyFaceMeshVertex
 10
0.0073656956665218
 20
0.3676342964172363
 30
-0.0052083334885538
 70
   192
  0
VERTEX
  5
123
330
49
100
AcDbEntity
  8
0
 62
     9
100
AcDbVertex
100
AcDbPolyFaceMeshVertex
 10
0.0052083334885538
 20
0.3659788966178894
 30
-0.0052083334885538
 70
   192
  0
VERTEX
  5
124
330
49
100
AcDbEntity
  8
0
 62
     9
100
AcDbVertex
100
AcDbPolyFaceMeshVertex
 10
0.002696031704545
 20
0.3649382591247559
 30
-0.0052083334885538
 70
   192
  0
VERTEX
  5
125
330
49
100
AcDbEntity
  8
0
 62
     9
100
AcDbVertex
100
AcDbPolyFaceMeshVertex
 10
0.0000000000000622
 20
0.3645833432674408
 30
-0.0052083334885538
 70
   192
  0
VERTEX
  5
126
330
49
100
AcDbEntity
  8
0
 62
     9
100
AcDbVertex
100
AcDbPolyFaceMeshVertex
 10
-0.002696031704545
 20
0.3649382591247559
 30
-0.0052083334885538
 70
   192
  0
VERTEX
  5
127
330
49
100
AcDbEntity
  8
0
 62
     9
100
AcDbVertex
100
AcDbPolyFaceMeshVertex
 10
-0.0052083334885538
 20
0.3659788966178894
 30
-0.0052083334885538
 70
   192
  0
VERTEX
  5
128
330
49
100
AcDbEntity
  8
0
 62
     9
100
AcDbVertex
100
AcDbPolyFaceMeshVertex
 10
-0.0073656956665218
 20
0.3676342964172363
 30
-0.0052083334885538
 70
   192
  0
VERTEX
  5
129
330
49
100
AcDbEntity
  8
0
 62
     9
100
AcDbVertex
100
AcDbPolyFaceMeshVertex
 10
-0.0090210977941751
 20
0.3697916567325592
 30
0.0052083334885538
 70
   192
  0
VERTEX
  5
12A
330
49
100
AcDbEntity
  8
0
 62
     9
100
AcDbVertex
100
AcDbPolyFaceMeshVertex
 10
-0.0100617269054055
 20
0.3723039627075195
 30
0.0052083334885538
 70
   192
  0
VERTEX
  5
12B
330
49
100
AcDbEntity
  8
0
 62
     9
100
AcDbVertex
100
AcDbPolyFaceMeshVertex
 10
-0.0104166669771075
 20
0.375
 30
0.0052083334885538
 70
   192
  0
VERTEX
  5
12C
330
49
100
AcDbEntity
  8
0
 62
     9
100
AcDbVertex
100
AcDbPolyFaceMeshVertex
 10
-0.0100617269054055
 20
0.3776960372924805
 30
0.0052083334885538
 70
   192
  0
VERTEX
  5
12D
330
49
100
AcDbEntity
  8
0
 62
     9
100
AcDbVertex
100
AcDbPolyFaceMeshVertex
 10
-0.0090210977941751
 20
0.3802083432674408
 30
0.0052083334885538
 70
   192
  0
VERTEX
  5
12E
330
49
100
AcDbEntity
  8
0
 62
     9
100
AcDbVertex
100
AcDbPolyFaceMeshVertex
 10
-0.0073656956665218
 20
0.3823657035827637
 30
0.0052083334885538
 70
   192
  0
VERTEX
  5
12F
330
49
100
AcDbEntity
  8
0
 62
     9
100
AcDbVertex
100
AcDbPolyFaceMeshVertex
 10
-0.0052083334885538
 20
0.3840211033821106
 30
0.0052083334885538
 70
   192
  0
VERTEX
  5
130
330
49
100
AcDbEntity
  8
0
 62
     9
100
AcDbVertex
100
AcDbPolyFaceMeshVertex
 10
-0.002696031704545
 20
0.3850617408752441
 30
0.0052083334885538
 70
   192
  0
VERTEX
  5
131
330
49
100
AcDbEntity
  8
0
 62
     9
100
AcDbVertex
100
AcDbPolyFaceMeshVertex
 10
0.0000000000000623
 20
0.3854166567325592
 30
0.0052083334885538
 70
   192
  0
VERTEX
  5
132
330
49
100
AcDbEntity
  8
0
 62
     9
100
AcDbVertex
100
AcDbPolyFaceMeshVertex
 10
0.002696031704545
 20
0.3850617408752441
 30
0.0052083334885538
 70
   192
  0
VERTEX
  5
133
330
49
100
AcDbEntity
  8
0
 62
     9
100
AcDbVertex
100
AcDbPolyFaceMeshVertex
 10
0.0052083334885538
 20
0.3840211033821106
 30
0.0052083334885538
 70
   192
  0
VERTEX
  5
134
330
49
100
AcDbEntity
  8
0
 62
     9
100
AcDbVertex
100
AcDbPolyFaceMeshVertex
 10
0.0073656956665218
 20
0.3823657035827637
 30
0.0052083334885538
 70
   192
  0
VERTEX
  5
135
330
49
100
AcDbEntity
  8
0
 62
     9
100
AcDbVertex
100
AcDbPolyFaceMeshVertex
 10
0.0090210977941751
 20
0.3802083432674408
 30
0.0052083334885538
 70
   192
  0
VERTEX
  5
136
330
49
100
AcDbEntity
  8
0
 62
     9
100
AcDbVertex
100
AcDbPolyFaceMeshVertex
 10
0.0100617269054055
 20
0.3776960372924805
 30
0.0052083334885538
 70
   192
  0
VERTEX
  5
137
330
49
100
AcDbEntity
  8
0
 62
     9
100
AcDbVertex
100
AcDbPolyFaceMeshVertex
 10
0.0104166669771075
 20
0.375
 30
0.0052083334885538
 70
   192
  0
VERTEX
  5
138
330
49
100
AcDbEntity
  8
0
 62
     9
100
AcDbVertex
100
AcDbPolyFaceMeshVertex
 10
0.0100617269054055
 20
0.3723039627075195
 30
0.0052083334885538
 70
   192
  0
VERTEX
  5
139
330
49
100
AcDbEntity
  8
0
 62
     9
100
AcDbVertex
100
AcDbPolyFaceMeshVertex
 10
0.0090210977941751
 20
0.3697916567325592
 30
0.0052083334885538
 70
   192
  0
VERTEX
  5
13A
330
49
100
AcDbEntity
  8
0
 62
     9
100
AcDbVertex
100
AcDbPolyFaceMeshVertex
 10
0.0073656956665218
 20
0.3676342964172363
 30
0.0052083334885538
 70
   192
  0
VERTEX
  5
13B
330
49
100
AcDbEntity
  8
0
 62
     9
100
AcDbVertex
100
AcDbPolyFaceMeshVertex
 10
0.0052083334885538
 20
0.3659788966178894
 30
0.0052083334885538
 70
   192
  0
VERTEX
  5
13C
330
49
100
AcDbEntity
  8
0
 62
     9
100
AcDbVertex
100
AcDbPolyFaceMeshVertex
 10
0.002696031704545
 20
0.3649382591247559
 30
0.0052083334885538
 70
   192
  0
VERTEX
  5
13D
330
49
100
AcDbEntity
  8
0
 62
     9
100
AcDbVertex
100
AcDbPolyFaceMeshVertex
 10
0.0000000000000622
 20
0.3645833432674408
 30
0.0052083334885538
 70
   192
  0
VERTEX
  5
13E
330
49
100
AcDbEntity
  8
0
 62
     9
100
AcDbVertex
100
AcDbPolyFaceMeshVertex
 10
-0.002696031704545
 20
0.3649382591247559
 30
0.0052083334885538
 70
   192
  0
VERTEX
  5
13F
330
49
100
AcDbEntity
  8
0
 62
     9
100
AcDbVertex
100
AcDbPolyFaceMeshVertex
 10
-0.0052083334885538
 20
0.3659788966178894
 30
0.0052083334885538
 70
   192
  0
VERTEX
  5
140
330
49
100
AcDbEntity
  8
0
 62
     9
100
AcDbVertex
100
AcDbPolyFaceMeshVertex
 10
-0.0073656956665218
 20
0.3676342964172363
 30
0.0052083334885538
 70
   192
  0
VERTEX
  5
141
330
49
100
AcDbEntity
  8
0
 62
     9
100
AcDbFaceRecord
 10
0.0
 20
0.0
 30
0.0
 70
   128
 71
     1
 72
     2
 73
     3
  0
VERTEX
  5
142
330
49
100
AcDbEntity
  8
0
 62
     9
100
AcDbFaceRecord
 10
0.0
 20
0.0
 30
0.0
 70
   128
 71
     1
 72
     3
 73
    23
  0
VERTEX
  5
143
330
49
100
AcDbEntity
  8
0
 62
     9
100
AcDbFaceRecord
 10
0.0
 20
0.0
 30
0.0
 70
   128
 71
    23
 72
     3
 73
     4
  0
VERTEX
  5
144
330
49
100
AcDbEntity
  8
0
 62
     9
100
AcDbFaceRecord
 10
0.0
 20
0.0
 30
0.0
 70
   128
 71
    23
 72
     4
 73
     7
  0
VERTEX
  5
145
330
49
100
AcDbEntity
  8
0
 62
     9
100
AcDbFaceRecord
 10
0.0
 20
0.0
 30
0.0
 70
   128
 71
     7
 72
     4
 73
     5
  0
VERTEX
  5
146
330
49
100
AcDbEntity
  8
0
 62
     9
100
AcDbFaceRecord
 10
0.0
 20
0.0
 30
0.0
 70
   128
 71
     7
 72
     5
 73
     6
  0
VERTEX
  5
147
330
49
100
AcDbEntity
  8
0
 62
     9
100
AcDbFaceRecord
 10
0.0
 20
0.0
 30
0.0
 70
   128
 71
    23
 72
     7
 73
     8
  0
VERTEX
  5
148
330
49
100
AcDbEntity
  8
0
 62
     9
100
AcDbFaceRecord
 10
0.0
 20
0.0
 30
0.0
 70
   128
 71
    23
 72
     8
 73
    21
  0
VERTEX
  5
149
330
49
100
AcDbEntity
  8
0
 62
     9
100
AcDbFaceRecord
 10
0.0
 20
0.0
 30
0.0
 70
   128
 71
    21
 72
     8
 73
    20
  0
VERTEX
  5
14A
330
49
100
AcDbEntity
  8
0
 62
     9
100
AcDbFaceRecord
 10
0.0
 20
0.0
 30
0.0
 70
   128
 71
    20
 72
     8
 73
     9
  0
VERTEX
  5
14B
330
49
100
AcDbEntity
  8
0
 62
     9
100
AcDbFaceRecord
 10
0.0
 20
0.0
 30
0.0
 70
   128
 71
    20
 72
     9
 73
    10
  0
VERTEX
  5
14C
330
49
100
AcDbEntity
  8
0
 62
     9
100
AcDbFaceRecord
 10
0.0
 20
0.0
 30
0.0
 70
   128
 71
    20
 72
    10
 73
    17
  0
VERTEX
  5
14D
330
49
100
AcDbEntity
  8
0
 62
     9
100
AcDbFaceRecord
 10
0.0
 20
0.0
 30
0.0
 70
   128
 71
    17
 72
    10
 73
    12
  0
VERTEX
  5
14E
330
49
100
AcDbEntity
  8
0
 62
     9
100
AcDbFaceRecord
 10
0.0
 20
0.0
 30
0.0
 70
   128
 71
    12
 72
    10
 73
    11
  0
VERTEX
  5
14F
330
49
100
AcDbEntity
  8
0
 62
     9
100
AcDbFaceRecord
 10
0.0
 20
0.0
 30
0.0
 70
   128
 71
    17
 72
    12
 73
    15
  0
VERTEX
  5
150
330
49
100
AcDbEntity
  8
0
 62
     9
100
AcDbFaceRecord
 10
0.0
 20
0.0
 30
0.0
 70
   128
 71
    15
 72
    12
 73
    13
  0
VERTEX
  5
151
330
49
100
AcDbEntity
  8
0
 62
     9
100
AcDbFaceRecord
 10
0.0
 20
0.0
 30
0.0
 70
   128
 71
    15
 72
    13
 73
    14
  0
VERTEX
  5
152
330
49
100
AcDbEntity
  8
0
 62
     9
100
AcDbFaceRecord
 10
0.0
 20
0.0
 30
0.0
 70
   128
 71
    17
 72
    15
 73
    16
  0
VERTEX
  5
153
330
49
100
AcDbEntity
  8
0
 62
     9
100
AcDbFaceRecord
 10
0.0
 20
0.0
 30
0.0
 70
   128
 71
    20
 72
    17
 73
    19
  0
VERTEX
  5
154
330
49
100
AcDbEntity
  8
0
 62
     9
100
AcDbFaceRecord
 10
0.0
 20
0.0
 30
0.0
 70
   128
 71
    19
 72
    17
 73
    18
  0
VERTEX
  5
155
330
49
100
AcDbEntity
  8
0
 62
     9
100
AcDbFaceRecord
 10
0.0
 20
0.0
 30
0.0
 70
   128
 71
    23
 72
    21
 73
    22
  0
VERTEX
  5
156
330
49
100
AcDbEntity
  8
0
 62
     9
100
AcDbFaceRecord
 10
0.0
 20
0.0
 30
0.0
 70
   128
 71
     1
 72
    23
 73
    24
  0
VERTEX
  5
157
330
49
100
AcDbEntity
  8
0
 62
     9
100
AcDbFaceRecord
 10
0.0
 20
0.0
 30
0.0
 70
   128
 71
    25
 72
    26
 73
    27
  0
VERTEX
  5
158
330
49
100
AcDbEntity
  8
0
 62
     9
100
AcDbFaceRecord
 10
0.0
 20
0.0
 30
0.0
 70
   128
 71
    25
 72
    27
 73
    32
  0
VERTEX
  5
159
330
49
100
AcDbEntity
  8
0
 62
     9
100
AcDbFaceRecord
 10
0.0
 20
0.0
 30
0.0
 70
   128
 71
    32
 72
    27
 73
    28
  0
VERTEX
  5
15A
330
49
100
AcDbEntity
  8
0
 62
     9
100
AcDbFaceRecord
 10
0.0
 20
0.0
 30
0.0
 70
   128
 71
    32
 72
    28
 73
    31
  0
VERTEX
  5
15B
330
49
100
AcDbEntity
  8
0
 62
     9
100
AcDbFaceRecord
 10
0.0
 20
0.0
 30
0.0
 70
   128
 71
    31
 72
    28
 73
    29
  0
VERTEX
  5
15C
330
49
100
AcDbEntity
  8
0
 62
     9
100
AcDbFaceRecord
 10
0.0
 20
0.0
 30
0.0
 70
   128
 71
    31
 72
    29
 73
    30
  0
VERTEX
  5
15D
330
49
100
AcDbEntity
  8
0
 62
     9
100
AcDbFaceRecord
 10
0.0
 20
0.0
 30
0.0
 70
   128
 71
    25
 72
    32
 73
    34
  0
VERTEX
  5
15E
330
49
100
AcDbEntity
  8
0
 62
     9
100
AcDbFaceRecord
 10
0.0
 20
0.0
 30
0.0
 70
   128
 71
    34
 72
    32
 73
    33
  0
VERTEX
  5
15F
330
49
100
AcDbEntity
  8
0
 62
     9
100
AcDbFaceRecord
 10
0.0
 20
0.0
 30
0.0
 70
   128
 71
    35
 72
    36
 73
    40
  0
VERTEX
  5
160
330
49
100
AcDbEntity
  8
0
 62
     9
100
AcDbFaceRecord
 10
0.0
 20
0.0
 30
0.0
 70
   128
 71
    40
 72
    36
 73
    39
  0
VERTEX
  5
161
330
49
100
AcDbEntity
  8
0
 62
     9
100
AcDbFaceRecord
 10
0.0
 20
0.0
 30
0.0
 70
   128
 71
    39
 72
    36
 73
    38
  0
VERTEX
  5
162
330
49
100
AcDbEntity
  8
0
 62
     9
100
AcDbFaceRecord
 10
0.0
 20
0.0
 30
0.0
 70
   128
 71
    38
 72
    36
 73
    37
  0
VERTEX
  5
163
330
49
100
AcDbEntity
  8
0
 62
     9
100
AcDbFaceRecord
 10
0.0
 20
0.0
 30
0.0
 70
   128
 71
    35
 72
    40
 73
    41
  0
VERTEX
  5
164
330
49
100
AcDbEntity
  8
0
 62
     9
100
AcDbFaceRecord
 10
0.0
 20
0.0
 30
0.0
 70
   128
 71
    35
 72
    41
 73
    42
  0
VERTEX
  5
165
330
49
100
AcDbEntity
  8
0
 62
     9
100
AcDbFaceRecord
 10
0.0
 20
0.0
 30
0.0
 70
   128
 71
    35
 72
    42
 73
    43
  0
VERTEX
  5
166
330
49
100
AcDbEntity
  8
0
 62
     9
100
AcDbFaceRecord
 10
0.0
 20
0.0
 30
0.0
 70
   128
 71
    35
 72
    43
 73
    44
  0
VERTEX
  5
167
330
49
100
AcDbEntity
  8
0
 62
     9
100
AcDbFaceRecord
 10
0.0
 20
0.0
 30
0.0
 70
   128
 71
    45
 72
    46
 73
    75
  0
VERTEX
  5
168
330
49
100
AcDbEntity
  8
0
 62
     9
100
AcDbFaceRecord
 10
0.0
 20
0.0
 30
0.0
 70
   128
 71
    75
 72
    46
 73
    74
  0
VERTEX
  5
169
330
49
100
AcDbEntity
  8
0
 62
     9
100
AcDbFaceRecord
 10
0.0
 20
0.0
 30
0.0
 70
   128
 71
    74
 72
    46
 73
    47
  0
VERTEX
  5
16A
330
49
100
AcDbEntity
  8
0
 62
     9
100
AcDbFaceRecord
 10
0.0
 20
0.0
 30
0.0
 70
   128
 71
    74
 72
    47
 73
    48
  0
VERTEX
  5
16B
330
49
100
AcDbEntity
  8
0
 62
     9
100
AcDbFaceRecord
 10
0.0
 20
0.0
 30
0.0
 70
   128
 71
    74
 72
    48
 73
    73
  0
VERTEX
  5
16C
330
49
100
AcDbEntity
  8
0
 62
     9
100
AcDbFaceRecord
 10
0.0
 20
0.0
 30
0.0
 70
   128
 71
    73
 72
    48
 73
    72
  0
VERTEX
  5
16D
330
49
100
AcDbEntity
  8
0
 62
     9
100
AcDbFaceRecord
 10
0.0
 20
0.0
 30
0.0
 70
   128
 71
    72
 72
    48
 73
    71
  0
VERTEX
  5
16E
330
49
100
AcDbEntity
  8
0
 62
     9
100
AcDbFaceRecord
 10
0.0
 20
0.0
 30
0.0
 70
   128
 71
    71
 72
    48
 73
    70
  0
VERTEX
  5
16F
330
49
100
AcDbEntity
  8
0
 62
     9
100
AcDbFaceRecord
 10
0.0
 20
0.0
 30
0.0
 70
   128
 71
    70
 72
    48
 73
    52
  0
VERTEX
  5
170
330
49
100
AcDbEntity
  8
0
 62
     9
100
AcDbFaceRecord
 10
0.0
 20
0.0
 30
0.0
 70
   128
 71
    52
 72
    48
 73
    51
  0
VERTEX
  5
171
330
49
100
AcDbEntity
  8
0
 62
     9
100
AcDbFaceRecord
 10
0.0
 20
0.0
 30
0.0
 70
   128
 71
    51
 72
    48
 73
    50
  0
VERTEX
  5
172
330
49
100
AcDbEntity
  8
0
 62
     9
100
AcDbFaceRecord
 10
0.0
 20
0.0
 30
0.0
 70
   128
 71
    50
 72
    48
 73
    49
  0
VERTEX
  5
173
330
49
100
AcDbEntity
  8
0
 62
     9
100
AcDbFaceRecord
 10
0.0
 20
0.0
 30
0.0
 70
   128
 71
    70
 72
    52
 73
    53
  0
VERTEX
  5
174
330
49
100
AcDbEntity
  8
0
 62
     9
100
AcDbFaceRecord
 10
0.0
 20
0.0
 30
0.0
 70
   128
 71
    70
 72
    53
 73
    69
  0
VERTEX
  5
175
330
49
100
AcDbEntity
  8
0
 62
     9
100
AcDbFaceRecord
 10
0.0
 20
0.0
 30
0.0
 70
   128
 71
    69
 72
    53
 73
    54
  0
VERTEX
  5
176
330
49
100
AcDbEntity
  8
0
 62
     9
100
AcDbFaceRecord
 10
0.0
 20
0.0
 30
0.0
 70
   128
 71
    69
 72
    54
 73
    68
  0
VERTEX
  5
177
330
49
100
AcDbEntity
  8
0
 62
     9
100
AcDbFaceRecord
 10
0.0
 20
0.0
 30
0.0
 70
   128
 71
    68
 72
    54
 73
    55
  0
VERTEX
  5
178
330
49
100
AcDbEntity
  8
0
 62
     9
100
AcDbFaceRecord
 10
0.0
 20
0.0
 30
0.0
 70
   128
 71
    68
 72
    55
 73
    59
  0
VERTEX
  5
179
330
49
100
AcDbEntity
  8
0
 62
     9
100
AcDbFaceRecord
 10
0.0
 20
0.0
 30
0.0
 70
   128
 71
    59
 72
    55
 73
    56
  0
VERTEX
  5
17A
330
49
100
AcDbEntity
  8
0
 62
     9
100
AcDbFaceRecord
 10
0.0
 20
0.0
 30
0.0
 70
   128
 71
    59
 72
    56
 73
    57
  0
VERTEX
  5
17B
330
49
100
AcDbEntity
  8
0
 62
     9
100
AcDbFaceRecord
 10
0.0
 20
0.0
 30
0.0
 70
   128
 71
    59
 72
    57
 73
    58
  0
VERTEX
  5
17C
330
49
100
AcDbEntity
  8
0
 62
     9
100
AcDbFaceRecord
 10
0.0
 20
0.0
 30
0.0
 70
   128
 71
    68
 72
    59
 73
    67
  0
VERTEX
  5
17D
330
49
100
AcDbEntity
  8
0
 62
     9
100
AcDbFaceRecord
 10
0.0
 20
0.0
 30
0.0
 70
   128
 71
    67
 72
    59
 73
    66
  0
VERTEX
  5
17E
330
49
100
AcDbEntity
  8
0
 62
     9
100
AcDbFaceRecord
 10
0.0
 20
0.0
 30
0.0
 70
   128
 71
    66
 72
    59
 73
    65
  0
VERTEX
  5
17F
330
49
100
AcDbEntity
  8
0
 62
     9
100
AcDbFaceRecord
 10
0.0
 20
0.0
 30
0.0
 70
   128
 71
    65
 72
    59
 73
    64
  0
VERTEX
  5
180
330
49
100
AcDbEntity
  8
0
 62
     9
100
AcDbFaceRecord
 10
0.0
 20
0.0
 30
0.0
 70
   128
 71
    64
 72
    59
 73
    60
  0
VERTEX
  5
181
330
49
100
AcDbEntity
  8
0
 62
     9
100
AcDbFaceRecord
 10
0.0
 20
0.0
 30
0.0
 70
   128
 71
    64
 72
    60
 73
    61
  0
VERTEX
  5
182
330
49
100
AcDbEntity
  8
0
 62
     9
100
AcDbFaceRecord
 10
0.0
 20
0.0
 30
0.0
 70
   128
 71
    64
 72
    61
 73
    63
  0
VERTEX
  5
183
330
49
100
AcDbEntity
  8
0
 62
     9
100
AcDbFaceRecord
 10
0.0
 20
0.0
 30
0.0
 70
   128
 71
    63
 72
    61
 73
    62
  0
VERTEX
  5
184
330
49
100
AcDbEntity
  8
0
 62
     9
100
AcDbFaceRecord
 10
0.0
 20
0.0
 30
0.0
 70
   128
 71
    62
 72
    76
 73
   105
  0
VERTEX
  5
185
330
49
100
AcDbEntity
  8
0
 62
     9
100
AcDbFaceRecord
 10
0.0
 20
0.0
 30
0.0
 70
   128
 71
   105
 72
    76
 73
   104
  0
VERTEX
  5
186
330
49
100
AcDbEntity
  8
0
 62
     9
100
AcDbFaceRecord
 10
0.0
 20
0.0
 30
0.0
 70
   128
 71
   104
 72
    76
 73
    77
  0
VERTEX
  5
187
330
49
100
AcDbEntity
  8
0
 62
     9
100
AcDbFaceRecord
 10
0.0
 20
0.0
 30
0.0
 70
   128
 71
   104
 72
    77
 73
    78
  0
VERTEX
  5
188
330
49
100
AcDbEntity
  8
0
 62
     9
100
AcDbFaceRecord
 10
0.0
 20
0.0
 30
0.0
 70
   128
 71
   104
 72
    78
 73
   103
  0
VERTEX
  5
189
330
49
100
AcDbEntity
  8
0
 62
     9
100
AcDbFaceRecord
 10
0.0
 20
0.0
 30
0.0
 70
   128
 71
   103
 72
    78
 73
   102
  0
VERTEX
  5
18A
330
49
100
AcDbEntity
  8
0
 62
     9
100
AcDbFaceRecord
 10
0.0
 20
0.0
 30
0.0
 70
   128
 71
   102
 72
    78
 73
   101
  0
VERTEX
  5
18B
330
49
100
AcDbEntity
  8
0
 62
     9
100
AcDbFaceRecord
 10
0.0
 20
0.0
 30
0.0
 70
   128
 71
   101
 72
    78
 73
   100
  0
VERTEX
  5
18C
330
49
100
AcDbEntity
  8
0
 62
     9
100
AcDbFaceRecord
 10
0.0
 20
0.0
 30
0.0
 70
   128
 71
   100
 72
    78
 73
    82
  0
VERTEX
  5
18D
330
49
100
AcDbEntity
  8
0
 62
     9
100
AcDbFaceRecord
 10
0.0
 20
0.0
 30
0.0
 70
   128
 71
    82
 72
    78
 73
    81
  0
VERTEX
  5
18E
330
49
100
AcDbEntity
  8
0
 62
     9
100
AcDbFaceRecord
 10
0.0
 20
0.0
 30
0.0
 70
   128
 71
    81
 72
    78
 73
    80
  0
VERTEX
  5
18F
330
49
100
AcDbEntity
  8
0
 62
     9
100
AcDbFaceRecord
 10
0.0
 20
0.0
 30
0.0
 70
   128
 71
    80
 72
    78
 73
    79
  0
VERTEX
  5
190
330
49
100
AcDbEntity
  8
0
 62
     9
100
AcDbFaceRecord
 10
0.0
 20
0.0
 30
0.0
 70
   128
 71
   100
 72
    82
 73
    83
  0
VERTEX
  5
191
330
49
100
AcDbEntity
  8
0
 62
     9
100
AcDbFaceRecord
 10
0.0
 20
0.0
 30
0.0
 70
   128
 71
   100
 72
    83
 73
    99
  0
VERTEX
  5
192
330
49
100
AcDbEntity
  8
0
 62
     9
100
AcDbFaceRecord
 10
0.0
 20
0.0
 30
0.0
 70
   128
 71
    99
 72
    83
 73
    84
  0
VERTEX
  5
193
330
49
100
AcDbEntity
  8
0
 62
     9
100
AcDbFaceRecord
 10
0.0
 20
0.0
 30
0.0
 70
   128
 71
    99
 72
    84
 73
    98
  0
VERTEX
  5
194
330
49
100
AcDbEntity
  8
0
 62
     9
100
AcDbFaceRecord
 10
0.0
 20
0.0
 30
0.0
 70
   128
 71
    98
 72
    84
 73
    85
  0
VERTEX
  5
195
330
49
100
AcDbEntity
  8
0
 62
     9
100
AcDbFaceRecord
 10
0.0
 20
0.0
 30
0.0
 70
   128
 71
    98
 72
    85
 73
    89
  0
VERTEX
  5
196
330
49
100
AcDbEntity
  8
0
 62
     9
100
AcDbFaceRecord
 10
0.0
 20
0.0
 30
0.0
 70
   128
 71
    89
 72
    85
 73
    86
  0
VERTEX
  5
197
330
49
100
AcDbEntity
  8
0
 62
     9
100
AcDbFaceRecord
 10
0.0
 20
0.0
 30
0.0
 70
   128
 71
    89
 72
    86
 73
    87
  0
VERTEX
  5
198
330
49
100
AcDbEntity
  8
0
 62
     9
100
AcDbFaceRecord
 10
0.0
 20
0.0
 30
0.0
 70
   128
 71
    89
 72
    87
 73
    88
  0
VERTEX
  5
199
330
49
100
AcDbEntity
  8
0
 62
     9
100
AcDbFaceRecord
 10
0.0
 20
0.0
 30
0.0
 70
   128
 71
    98
 72
    89
 73
    97
  0
VERTEX
  5
19A
330
49
100
AcDbEntity
  8
0
 62
     9
100
AcDbFaceRecord
 10
0.0
 20
0.0
 30
0.0
 70
   128
 71
    97
 72
    89
 73
    96
  0
VERTEX
  5
19B
330
49
100
AcDbEntity
  8
0
 62
     9
100
AcDbFaceRecord
 10
0.0
 20
0.0
 30
0.0
 70
   128
 71
    96
 72
    89
 73
    95
  0
VERTEX
  5
19C
330
49
100
AcDbEntity
  8
0
 62
     9
100
AcDbFaceRecord
 10
0.0
 20
0.0
 30
0.0
 70
   128
 71
    95
 72
    89
 73
    94
  0
VERTEX
  5
19D
330
49
100
AcDbEntity
  8
0
 62
     9
100
AcDbFaceRecord
 10
0.0
 20
0.0
 30
0.0
 70
   128
 71
    94
 72
    89
 73
    90
  0
VERTEX
  5
19E
330
49
100
AcDbEntity
  8
0
 62
     9
100
AcDbFaceRecord
 10
0.0
 20
0.0
 30
0.0
 70
   128
 71
    94
 72
    90
 73
    91
  0
VERTEX
  5
19F
330
49
100
AcDbEntity
  8
0
 62
     9
100
AcDbFaceRecord
 10
0.0
 20
0.0
 30
0.0
 70
   128
 71
    94
 72
    91
 73
    93
  0
VERTEX
  5
1A0
330
49
100
AcDbEntity
  8
0
 62
     9
100
AcDbFaceRecord
 10
0.0
 20
0.0
 30
0.0
 70
   128
 71
    93
 72
    91
 73
    92
  0
VERTEX
  5
1A1
330
49
100
AcDbEntity
  8
0
 62
     9
100
AcDbFaceRecord
 10
0.0
 20
0.0
 30
0.0
 70
   128
 71
   106
 72
   107
 73
   114
  0
VERTEX
  5
1A2
330
49
100
AcDbEntity
  8
0
 62
     9
100
AcDbFaceRecord
 10
0.0
 20
0.0
 30
0.0
 70
   128
 71
   114
 72
   107
 73
   115
  0
VERTEX
  5
1A3
330
49
100
AcDbEntity
  8
0
 62
     9
100
AcDbFaceRecord
 10
0.0
 20
0.0
 30
0.0
 70
   128
 71
   115
 72
   107
 73
   116
  0
VERTEX
  5
1A4
330
49
100
AcDbEntity
  8
0
 62
     9
100
AcDbFaceRecord
 10
0.0
 20
0.0
 30
0.0
 70
   128
 71
   116
 72
   107
 73
   117
  0
VERTEX
  5
1A5
330
49
100
AcDbEntity
  8
0
 62
     9
100
AcDbFaceRecord
 10
0.0
 20
0.0
 30
0.0
 70
   128
 71
   117
 72
   107
 73
   118
  0
VERTEX
  5
1A6
330
49
100
AcDbEntity
  8
0
 62
     9
100
AcDbFaceRecord
 10
0.0
 20
0.0
 30
0.0
 70
   128
 71
   118
 72
   107
 73
   119
  0
VERTEX
  5
1A7
330
49
100
AcDbEntity
  8
0
 62
     9
100
AcDbFaceRecord
 10
0.0
 20
0.0
 30
0.0
 70
   128
 71
   119
 72
   107
 73
   108
  0
VERTEX
  5
1A8
330
49
100
AcDbEntity
  8
0
 62
     9
100
AcDbFaceRecord
 10
0.0
 20
0.0
 30
0.0
 70
   128
 71
   119
 72
   108
 73
   120
  0
VERTEX
  5
1A9
330
49
100
AcDbEntity
  8
0
 62
     9
100
AcDbFaceRecord
 10
0.0
 20
0.0
 30
0.0
 70
   128
 71
   120
 72
   108
 73
   121
  0
VERTEX
  5
1AA
330
49
100
AcDbEntity
  8
0
 62
     9
100
AcDbFaceRecord
 10
0.0
 20
0.0
 30
0.0
 70
   128
 71
   121
 72
   108
 73
   122
  0
VERTEX
  5
1AB
330
49
100
AcDbEntity
  8
0
 62
     9
100
AcDbFaceRecord
 10
0.0
 20
0.0
 30
0.0
 70
   128
 71
   122
 72
   108
 73
   123
  0
VERTEX
  5
1AC
330
49
100
AcDbEntity
  8
0
 62
     9
100
AcDbFaceRecord
 10
0.0
 20
0.0
 30
0.0
 70
   128
 71
   123
 72
   108
 73
   124
  0
VERTEX
  5
1AD
330
49
100
AcDbEntity
  8
0
 62
     9
100
AcDbFaceRecord
 10
0.0
 20
0.0
 30
0.0
 70
   128
 71
   124
 72
   108
 73
   109
  0
VERTEX
  5
1AE
330
49
100
AcDbEntity
  8
0
 62
     9
100
AcDbFaceRecord
 10
0.0
 20
0.0
 30
0.0
 70
   128
 71
   124
 72
   109
 73
   125
  0
VERTEX
  5
1AF
330
49
100
AcDbEntity
  8
0
 62
     9
100
AcDbFaceRecord
 10
0.0
 20
0.0
 30
0.0
 70
   128
 71
   125
 72
   109
 73
   126
  0
VERTEX
  5
1B0
330
49
100
AcDbEntity
  8
0
 62
     9
100
AcDbFaceRecord
 10
0.0
 20
0.0
 30
0.0
 70
   128
 71
   126
 72
   109
 73
   127
  0
VERTEX
  5
1B1
330
49
100
AcDbEntity
  8
0
 62
     9
100
AcDbFaceRecord
 10
0.0
 20
0.0
 30
0.0
 70
   128
 71
   127
 72
   109
 73
   128
  0
VERTEX
  5
1B2
330
49
100
AcDbEntity
  8
0
 62
     9
100
AcDbFaceRecord
 10
0.0
 20
0.0
 30
0.0
 70
   128
 71
   128
 72
   109
 73
   111
  0
VERTEX
  5
1B3
330
49
100
AcDbEntity
  8
0
 62
     9
100
AcDbFaceRecord
 10
0.0
 20
0.0
 30
0.0
 70
   128
 71
   111
 72
   109
 73
   110
  0
VERTEX
  5
1B4
330
49
100
AcDbEntity
  8
0
 62
     9
100
AcDbFaceRecord
 10
0.0
 20
0.0
 30
0.0
 70
   128
 71
   128
 72
   111
 73
   129
  0
VERTEX
  5
1B5
330
49
100
AcDbEntity
  8
0
 62
     9
100
AcDbFaceRecord
 10
0.0
 20
0.0
 30
0.0
 70
   128
 71
   129
 72
   111
 73
   130
  0
VERTEX
  5
1B6
330
49
100
AcDbEntity
  8
0
 62
     9
100
AcDbFaceRecord
 10
0.0
 20
0.0
 30
0.0
 70
   128
 71
   130
 72
   111
 73
   131
  0
VERTEX
  5
1B7
330
49
100
AcDbEntity
  8
0
 62
     9
100
AcDbFaceRecord
 10
0.0
 20
0.0
 30
0.0
 70
   128
 71
   131
 72
   111
 73
   112
  0
VERTEX
  5
1B8
330
49
100
AcDbEntity
  8
0
 62
     9
100
AcDbFaceRecord
 10
0.0
 20
0.0
 30
0.0
 70
   128
 71
   131
 72
   112
 73
   132
  0
VERTEX
  5
1B9
330
49
100
AcDbEntity
  8
0
 62
     9
100
AcDbFaceRecord
 10
0.0
 20
0.0
 30
0.0
 70
   128
 71
   132
 72
   112
 73
   133
  0
VERTEX
  5
1BA
330
49
100
AcDbEntity
  8
0
 62
     9
100
AcDbFaceRecord
 10
0.0
 20
0.0
 30
0.0
 70
   128
 71
   133
 72
   112
 73
   134
  0
VERTEX
  5
1BB
330
49
100
AcDbEntity
  8
0
 62
     9
100
AcDbFaceRecord
 10
0.0
 20
0.0
 30
0.0
 70
   128
 71
   134
 72
   112
 73
   106
  0
VERTEX
  5
1BC
330
49
100
AcDbEntity
  8
0
 62
     9
100
AcDbFaceRecord
 10
0.0
 20
0.0
 30
0.0
 70
   128
 71
   106
 72
   112
 73
   113
  0
VERTEX
  5
1BD
330
49
100
AcDbEntity
  8
0
 62
     9
100
AcDbFaceRecord
 10
0.0
 20
0.0
 30
0.0
 70
   128
 71
   134
 72
   106
 73
   135
  0
VERTEX
  5
1BE
330
49
100
AcDbEntity
  8
0
 62
     9
100
AcDbFaceRecord
 10
0.0
 20
0.0
 30
0.0
 70
   128
 71
   135
 72
   106
 73
   136
  0
VERTEX
  5
1BF
330
49
100
AcDbEntity
  8
0
 62
     9
100
AcDbFaceRecord
 10
0.0
 20
0.0
 30
0.0
 70
   128
 71
   136
 72
   106
 73
   137
  0
VERTEX
  5
1C0
330
49
100
AcDbEntity
  8
0
 62
     9
100
AcDbFaceRecord
 10
0.0
 20
0.0
 30
0.0
 70
   128
 71
   137
 72
   106
 73
   114
  0
VERTEX
  5
1C1
330
49
100
AcDbEntity
  8
0
 62
     9
100
AcDbFaceRecord
 10
0.0
 20
0.0
 30
0.0
 70
   128
 71
   138
 72
   139
 73
   146
  0
VERTEX
  5
1C2
330
49
100
AcDbEntity
  8
0
 62
     9
100
AcDbFaceRecord
 10
0.0
 20
0.0
 30
0.0
 70
   128
 71
   146
 72
   139
 73
   147
  0
VERTEX
  5
1C3
330
49
100
AcDbEntity
  8
0
 62
     9
100
AcDbFaceRecord
 10
0.0
 20
0.0
 30
0.0
 70
   128
 71
   147
 72
   139
 73
   148
  0
VERTEX
  5
1C4
330
49
100
AcDbEntity
  8
0
 62
     9
100
AcDbFaceRecord
 10
0.0
 20
0.0
 30
0.0
 70
   128
 71
   148
 72
   139
 73
   149
  0
VERTEX
  5
1C5
330
49
100
AcDbEntity
  8
0
 62
     9
100
AcDbFaceRecord
 10
0.0
 20
0.0
 30
0.0
 70
   128
 71
   149
 72
   139
 73
   150
  0
VERTEX
  5
1C6
330
49
100
AcDbEntity
  8
0
 62
     9
100
AcDbFaceRecord
 10
0.0
 20
0.0
 30
0.0
 70
   128
 71
   150
 72
   139
 73
   151
  0
VERTEX
  5
1C7
330
49
100
AcDbEntity
  8
0
 62
     9
100
AcDbFaceRecord
 10
0.0
 20
0.0
 30
0.0
 70
   128
 71
   151
 72
   139
 73
   140
  0
VERTEX
  5
1C8
330
49
100
AcDbEntity
  8
0
 62
     9
100
AcDbFaceRecord
 10
0.0
 20
0.0
 30
0.0
 70
   128
 71
   151
 72
   140
 73
   152
  0
VERTEX
  5
1C9
330
49
100
AcDbEntity
  8
0
 62
     9
100
AcDbFaceRecord
 10
0.0
 20
0.0
 30
0.0
 70
   128
 71
   152
 72
   140
 73
   153
  0
VERTEX
  5
1CA
330
49
100
AcDbEntity
  8
0
 62
     9
100
AcDbFaceRecord
 10
0.0
 20
0.0
 30
0.0
 70
   128
 71
   153
 72
   140
 73
   154
  0
VERTEX
  5
1CB
330
49
100
AcDbEntity
  8
0
 62
     9
100
AcDbFaceRecord
 10
0.0
 20
0.0
 30
0.0
 70
   128
 71
   154
 72
   140
 73
   155
  0
VERTEX
  5
1CC
330
49
100
AcDbEntity
  8
0
 62
     9
100
AcDbFaceRecord
 10
0.0
 20
0.0
 30
0.0
 70
   128
 71
   155
 72
   140
 73
   156
  0
VERTEX
  5
1CD
330
49
100
AcDbEntity
  8
0
 62
     9
100
AcDbFaceRecord
 10
0.0
 20
0.0
 30
0.0
 70
   128
 71
   156
 72
   140
 73
   141
  0
VERTEX
  5
1CE
330
49
100
AcDbEntity
  8
0
 62
     9
100
AcDbFaceRecord
 10
0.0
 20
0.0
 30
0.0
 70
   128
 71
   156
 72
   141
 73
   157
  0
VERTEX
  5
1CF
330
49
100
AcDbEntity
  8
0
 62
     9
100
AcDbFaceRecord
 10
0.0
 20
0.0
 30
0.0
 70
   128
 71
   157
 72
   141
 73
   158
  0
VERTEX
  5
1D0
330
49
100
AcDbEntity
  8
0
 62
     9
100
AcDbFaceRecord
 10
0.0
 20
0.0
 30
0.0
 70
   128
 71
   158
 72
   141
 73
   159
  0
VERTEX
  5
1D1
330
49
100
AcDbEntity
  8
0
 62
     9
100
AcDbFaceRecord
 10
0.0
 20
0.0
 30
0.0
 70
   128
 71
   159
 72
   141
 73
   160
  0
VERTEX
  5
1D2
330
49
100
AcDbEntity
  8
0
 62
     9
100
AcDbFaceRecord
 10
0.0
 20
0.0
 30
0.0
 70
   128
 71
   160
 72
   141
 73
   143
  0
VERTEX
  5
1D3
330
49
100
AcDbEntity
  8
0
 62
     9
100
AcDbFaceRecord
 10
0.0
 20
0.0
 30
0.0
 70
   128
 71
   143
 72
   141
 73
   142
  0
VERTEX
  5
1D4
330
49
100
AcDbEntity
  8
0
 62
     9
100
AcDbFaceRecord
 10
0.0
 20
0.0
 30
0.0
 70
   128
 71
   160
 72
   143
 73
   161
  0
VERTEX
  5
1D5
330
49
100
AcDbEntity
  8
0
 62
     9
100
AcDbFaceRecord
 10
0.0
 20
0.0
 30
0.0
 70
   128
 71
   161
 72
   143
 73
   162
  0
VERTEX
  5
1D6
330
49
100
AcDbEntity
  8
0
 62
     9
100
AcDbFaceRecord
 10
0.0
 20
0.0
 30
0.0
 70
   128
 71
   162
 72
   143
 73
   163
  0
VERTEX
  5
1D7
330
49
100
AcDbEntity
  8
0
 62
     9
100
AcDbFaceRecord
 10
0.0
 20
0.0
 30
0.0
 70
   128
 71
   163
 72
   143
 73
   144
  0
VERTEX
  5
1D8
330
49
100
AcDbEntity
  8
0
 62
     9
100
AcDbFaceRecord
 10
0.0
 20
0.0
 30
0.0
 70
   128
 71
   163
 72
   144
 73
   164
  0
VERTEX
  5
1D9
330
49
100
AcDbEntity
  8
0
 62
     9
100
AcDbFaceRecord
 10
0.0
 20
0.0
 30
0.0
 70
   128
 71
   164
 72
   144
 73
   165
  0
VERTEX
  5
1DA
330
49
100
AcDbEntity
  8
0
 62
     9
100
AcDbFaceRecord
 10
0.0
 20
0.0
 30
0.0
 70
   128
 71
   165
 72
   144
 73
   166
  0
VERTEX
  5
1DB
330
49
100
AcDbEntity
  8
0
 62
     9
100
AcDbFaceRecord
 10
0.0
 20
0.0
 30
0.0
 70
   128
 71
   166
 72
   144
 73
   138
  0
VERTEX
  5
1DC
330
49
100
AcDbEntity
  8
0
 62
     9
100
AcDbFaceRecord
 10
0.0
 20
0.0
 30
0.0
 70
   128
 71
   138
 72
   144
 73
   145
  0
VERTEX
  5
1DD
330
49
100
AcDbEntity
  8
0
 62
     9
100
AcDbFaceRecord
 10
0.0
 20
0.0
 30
0.0
 70
   128
 71
   166
 72
   138
 73
   167
  0
VERTEX
  5
1DE
330
49
100
AcDbEntity
  8
0
 62
     9
100
AcDbFaceRecord
 10
0.0
 20
0.0
 30
0.0
 70
   128
 71
   167
 72
   138
 73
   168
  0
VERTEX
  5
1DF
330
49
100
AcDbEntity
  8
0
 62
     9
100
AcDbFaceRecord
 10
0.0
 20
0.0
 30
0.0
 70
   128
 71
   168
 72
   138
 73
   169
  0
VERTEX
  5
1E0
330
49
100
AcDbEntity
  8
0
 62
     9
100
AcDbFaceRecord
 10
0.0
 20
0.0
 30
0.0
 70
   128
 71
   169
 72
   138
 73
   146
  0
VERTEX
  5
1E1
330
49
100
AcDbEntity
  8
0
 62
     9
100
AcDbFaceRecord
 10
0.0
 20
0.0
 30
0.0
 70
   128
 71
   170
 72
   171
 73
   172
  0
VERTEX
  5
1E2
330
49
100
AcDbEntity
  8
0
 62
     9
100
AcDbFaceRecord
 10
0.0
 20
0.0
 30
0.0
 70
   128
 71
   170
 72
   172
 73
   173
  0
VERTEX
  5
1E3
330
49
100
AcDbEntity
  8
0
 62
     9
100
AcDbFaceRecord
 10
0.0
 20
0.0
 30
0.0
 70
   128
 71
   174
 72
   175
 73
   177
  0
VERTEX
  5
1E4
330
49
100
AcDbEntity
  8
0
 62
     9
100
AcDbFaceRecord
 10
0.0
 20
0.0
 30
0.0
 70
   128
 71
   177
 72
   175
 73
   176
  0
VERTEX
  5
1E5
330
49
100
AcDbEntity
  8
0
 62
     9
100
AcDbFaceRecord
 10
0.0
 20
0.0
 30
0.0
 70
   128
 71
   178
 72
   179
 73
   181
  0
VERTEX
  5
1E6
330
49
100
AcDbEntity
  8
0
 62
     9
100
AcDbFaceRecord
 10
0.0
 20
0.0
 30
0.0
 70
   128
 71
   181
 72
   179
 73
   180
  0
VERTEX
  5
1E7
330
49
100
AcDbEntity
  8
0
 62
     9
100
AcDbFaceRecord
 10
0.0
 20
0.0
 30
0.0
 70
   128
 71
   178
 72
   181
 73
   186
  0
VERTEX
  5
1E8
330
49
100
AcDbEntity
  8
0
 62
     9
100
AcDbFaceRecord
 10
0.0
 20
0.0
 30
0.0
 70
   128
 71
   186
 72
   181
 73
   182
  0
VERTEX
  5
1E9
330
49
100
AcDbEntity
  8
0
 62
     9
100
AcDbFaceRecord
 10
0.0
 20
0.0
 30
0.0
 70
   128
 71
   186
 72
   182
 73
   185
  0
VERTEX
  5
1EA
330
49
100
AcDbEntity
  8
0
 62
     9
100
AcDbFaceRecord
 10
0.0
 20
0.0
 30
0.0
 70
   128
 71
   185
 72
   182
 73
   184
  0
VERTEX
  5
1EB
330
49
100
AcDbEntity
  8
0
 62
     9
100
AcDbFaceRecord
 10
0.0
 20
0.0
 30
0.0
 70
   128
 71
   184
 72
   182
 73
   183
  0
VERTEX
  5
1EC
330
49
100
AcDbEntity
  8
0
 62
     9
100
AcDbFaceRecord
 10
0.0
 20
0.0
 30
0.0
 70
   128
 71
   187
 72
   188
 73
   195
  0
VERTEX
  5
1ED
330
49
100
AcDbEntity
  8
0
 62
     9
100
AcDbFaceRecord
 10
0.0
 20
0.0
 30
0.0
 70
   128
 71
   195
 72
   188
 73
   189
  0
VERTEX
  5
1EE
330
49
100
AcDbEntity
  8
0
 62
     9
100
AcDbFaceRecord
 10
0.0
 20
0.0
 30
0.0
 70
   128
 71
   195
 72
   189
 73
   190
  0
VERTEX
  5
1EF
330
49
100
AcDbEntity
  8
0
 62
     9
100
AcDbFaceRecord
 10
0.0
 20
0.0
 30
0.0
 70
   128
 71
   195
 72
   190
 73
   194
  0
VERTEX
  5
1F0
330
49
100
AcDbEntity
  8
0
 62
     9
100
AcDbFaceRecord
 10
0.0
 20
0.0
 30
0.0
 70
   128
 71
   194
 72
   190
 73
   191
  0
VERTEX
  5
1F1
330
49
100
AcDbEntity
  8
0
 62
     9
100
AcDbFaceRecord
 10
0.0
 20
0.0
 30
0.0
 70
   128
 71
   194
 72
   191
 73
   192
  0
VERTEX
  5
1F2
330
49
100
AcDbEntity
  8
0
 62
     9
100
AcDbFaceRecord
 10
0.0
 20
0.0
 30
0.0
 70
   128
 71
   194
 72
   192
 73
   193
  0
VERTEX
  5
1F3
330
49
100
AcDbEntity
  8
0
 62
     9
100
AcDbFaceRecord
 10
0.0
 20
0.0
 30
0.0
 70
   128
 71
   196
 72
   197
 73
   198
  0
VERTEX
  5
1F4
330
49
100
AcDbEntity
  8
0
 62
     9
100
AcDbFaceRecord
 10
0.0
 20
0.0
 30
0.0
 70
   128
 71
   196
 72
   198
 73
   199
  0
VERTEX
  5
1F5
330
49
100
AcDbEntity
  8
0
 62
     9
100
AcDbFaceRecord
 10
0.0
 20
0.0
 30
0.0
 70
   128
 71
   200
 72
   201
 73
   224
  0
VERTEX
  5
1F6
330
49
100
AcDbEntity
  8
0
 62
     9
100
AcDbFaceRecord
 10
0.0
 20
0.0
 30
0.0
 70
   128
 71
   224
 72
   201
 73
   225
  0
VERTEX
  5
1F7
330
49
100
AcDbEntity
  8
0
 62
     9
100
AcDbFaceRecord
 10
0.0
 20
0.0
 30
0.0
 70
   128
 71
   225
 72
   201
 73
   202
  0
VERTEX
  5
1F8
330
49
100
AcDbEntity
  8
0
 62
     9
100
AcDbFaceRecord
 10
0.0
 20
0.0
 30
0.0
 70
   128
 71
   225
 72
   202
 73
   226
  0
VERTEX
  5
1F9
330
49
100
AcDbEntity
  8
0
 62
     9
100
AcDbFaceRecord
 10
0.0
 20
0.0
 30
0.0
 70
   128
 71
   226
 72
   202
 73
   203
  0
VERTEX
  5
1FA
330
49
100
AcDbEntity
  8
0
 62
     9
100
AcDbFaceRecord
 10
0.0
 20
0.0
 30
0.0
 70
   128
 71
   226
 72
   203
 73
   227
  0
VERTEX
  5
1FB
330
49
100
AcDbEntity
  8
0
 62
     9
100
AcDbFaceRecord
 10
0.0
 20
0.0
 30
0.0
 70
   128
 71
   227
 72
   203
 73
   204
  0
VERTEX
  5
1FC
330
49
100
AcDbEntity
  8
0
 62
     9
100
AcDbFaceRecord
 10
0.0
 20
0.0
 30
0.0
 70
   128
 71
   227
 72
   204
 73
   228
  0
VERTEX
  5
1FD
330
49
100
AcDbEntity
  8
0
 62
     9
100
AcDbFaceRecord
 10
0.0
 20
0.0
 30
0.0
 70
   128
 71
   228
 72
   204
 73
   205
  0
VERTEX
  5
1FE
330
49
100
AcDbEntity
  8
0
 62
     9
100
AcDbFaceRecord
 10
0.0
 20
0.0
 30
0.0
 70
   128
 71
   228
 72
   205
 73
   229
  0
VERTEX
  5
1FF
330
49
100
AcDbEntity
  8
0
 62
     9
100
AcDbFaceRecord
 10
0.0
 20
0.0
 30
0.0
 70
   128
 71
   229
 72
   205
 73
   206
  0
VERTEX
  5
200
330
49
100
AcDbEntity
  8
0
 62
     9
100
AcDbFaceRecord
 10
0.0
 20
0.0
 30
0.0
 70
   128
 71
   229
 72
   206
 73
   230
  0
VERTEX
  5
201
330
49
100
AcDbEntity
  8
0
 62
     9
100
AcDbFaceRecord
 10
0.0
 20
0.0
 30
0.0
 70
   128
 71
   230
 72
   206
 73
   207
  0
VERTEX
  5
202
330
49
100
AcDbEntity
  8
0
 62
     9
100
AcDbFaceRecord
 10
0.0
 20
0.0
 30
0.0
 70
   128
 71
   230
 72
   207
 73
   231
  0
VERTEX
  5
203
330
49
100
AcDbEntity
  8
0
 62
     9
100
AcDbFaceRecord
 10
0.0
 20
0.0
 30
0.0
 70
   128
 71
   231
 72
   207
 73
   208
  0
VERTEX
  5
204
330
49
100
AcDbEntity
  8
0
 62
     9
100
AcDbFaceRecord
 10
0.0
 20
0.0
 30
0.0
 70
   128
 71
   231
 72
   208
 73
   232
  0
VERTEX
  5
205
330
49
100
AcDbEntity
  8
0
 62
     9
100
AcDbFaceRecord
 10
0.0
 20
0.0
 30
0.0
 70
   128
 71
   232
 72
   208
 73
   209
  0
VERTEX
  5
206
330
49
100
AcDbEntity
  8
0
 62
     9
100
AcDbFaceRecord
 10
0.0
 20
0.0
 30
0.0
 70
   128
 71
   232
 72
   209
 73
   233
  0
VERTEX
  5
207
330
49
100
AcDbEntity
  8
0
 62
     9
100
AcDbFaceRecord
 10
0.0
 20
0.0
 30
0.0
 70
   128
 71
   233
 72
   209
 73
   210
  0
VERTEX
  5
208
330
49
100
AcDbEntity
  8
0
 62
     9
100
AcDbFaceRecord
 10
0.0
 20
0.0
 30
0.0
 70
   128
 71
   233
 72
   210
 73
   234
  0
VERTEX
  5
209
330
49
100
AcDbEntity
  8
0
 62
     9
100
AcDbFaceRecord
 10
0.0
 20
0.0
 30
0.0
 70
   128
 71
   234
 72
   210
 73
   211
  0
VERTEX
  5
20A
330
49
100
AcDbEntity
  8
0
 62
     9
100
AcDbFaceRecord
 10
0.0
 20
0.0
 30
0.0
 70
   128
 71
   234
 72
   211
 73
   235
  0
VERTEX
  5
20B
330
49
100
AcDbEntity
  8
0
 62
     9
100
AcDbFaceRecord
 10
0.0
 20
0.0
 30
0.0
 70
   128
 71
   235
 72
   211
 73
   212
  0
VERTEX
  5
20C
330
49
100
AcDbEntity
  8
0
 62
     9
100
AcDbFaceRecord
 10
0.0
 20
0.0
 30
0.0
 70
   128
 71
   235
 72
   212
 73
   236
  0
VERTEX
  5
20D
330
49
100
AcDbEntity
  8
0
 62
     9
100
AcDbFaceRecord
 10
0.0
 20
0.0
 30
0.0
 70
   128
 71
   236
 72
   212
 73
   213
  0
VERTEX
  5
20E
330
49
100
AcDbEntity
  8
0
 62
     9
100
AcDbFaceRecord
 10
0.0
 20
0.0
 30
0.0
 70
   128
 71
   236
 72
   213
 73
   237
  0
VERTEX
  5
20F
330
49
100
AcDbEntity
  8
0
 62
     9
100
AcDbFaceRecord
 10
0.0
 20
0.0
 30
0.0
 70
   128
 71
   237
 72
   213
 73
   214
  0
VERTEX
  5
210
330
49
100
AcDbEntity
  8
0
 62
     9
100
AcDbFaceRecord
 10
0.0
 20
0.0
 30
0.0
 70
   128
 71
   237
 72
   214
 73
   238
  0
VERTEX
  5
211
330
49
100
AcDbEntity
  8
0
 62
     9
100
AcDbFaceRecord
 10
0.0
 20
0.0
 30
0.0
 70
   128
 71
   238
 72
   214
 73
   215
  0
VERTEX
  5
212
330
49
100
AcDbEntity
  8
0
 62
     9
100
AcDbFaceRecord
 10
0.0
 20
0.0
 30
0.0
 70
   128
 71
   238
 72
   215
 73
   239
  0
VERTEX
  5
213
330
49
100
AcDbEntity
  8
0
 62
     9
100
AcDbFaceRecord
 10
0.0
 20
0.0
 30
0.0
 70
   128
 71
   239
 72
   215
 73
   216
  0
VERTEX
  5
214
330
49
100
AcDbEntity
  8
0
 62
     9
100
AcDbFaceRecord
 10
0.0
 20
0.0
 30
0.0
 70
   128
 71
   239
 72
   216
 73
   240
  0
VERTEX
  5
215
330
49
100
AcDbEntity
  8
0
 62
     9
100
AcDbFaceRecord
 10
0.0
 20
0.0
 30
0.0
 70
   128
 71
   240
 72
   216
 73
   217
  0
VERTEX
  5
216
330
49
100
AcDbEntity
  8
0
 62
     9
100
AcDbFaceRecord
 10
0.0
 20
0.0
 30
0.0
 70
   128
 71
   240
 72
   217
 73
   241
  0
VERTEX
  5
217
330
49
100
AcDbEntity
  8
0
 62
     9
100
AcDbFaceRecord
 10
0.0
 20
0.0
 30
0.0
 70
   128
 71
   241
 72
   217
 73
   218
  0
VERTEX
  5
218
330
49
100
AcDbEntity
  8
0
 62
     9
100
AcDbFaceRecord
 10
0.0
 20
0.0
 30
0.0
 70
   128
 71
   241
 72
   218
 73
   242
  0
VERTEX
  5
219
330
49
100
AcDbEntity
  8
0
 62
     9
100
AcDbFaceRecord
 10
0.0
 20
0.0
 30
0.0
 70
   128
 71
   242
 72
   218
 73
   219
  0
VERTEX
  5
21A
330
49
100
AcDbEntity
  8
0
 62
     9
100
AcDbFaceRecord
 10
0.0
 20
0.0
 30
0.0
 70
   128
 71
   242
 72
   219
 73
   243
  0
VERTEX
  5
21B
330
49
100
AcDbEntity
  8
0
 62
     9
100
AcDbFaceRecord
 10
0.0
 20
0.0
 30
0.0
 70
   128
 71
   243
 72
   219
 73
   220
  0
VERTEX
  5
21C
330
49
100
AcDbEntity
  8
0
 62
     9
100
AcDbFaceRecord
 10
0.0
 20
0.0
 30
0.0
 70
   128
 71
   243
 72
   220
 73
   244
  0
VERTEX
  5
21D
330
49
100
AcDbEntity
  8
0
 62
     9
100
AcDbFaceRecord
 10
0.0
 20
0.0
 30
0.0
 70
   128
 71
   244
 72
   220
 73
   221
  0
VERTEX
  5
21E
330
49
100
AcDbEntity
  8
0
 62
     9
100
AcDbFaceRecord
 10
0.0
 20
0.0
 30
0.0
 70
   128
 71
   244
 72
   221
 73
   245
  0
VERTEX
  5
21F
330
49
100
AcDbEntity
  8
0
 62
     9
100
AcDbFaceRecord
 10
0.0
 20
0.0
 30
0.0
 70
   128
 71
   245
 72
   221
 73
   222
  0
VERTEX
  5
220
330
49
100
AcDbEntity
  8
0
 62
     9
100
AcDbFaceRecord
 10
0.0
 20
0.0
 30
0.0
 70
   128
 71
   245
 72
   222
 73
   246
  0
VERTEX
  5
221
330
49
100
AcDbEntity
  8
0
 62
     9
100
AcDbFaceRecord
 10
0.0
 20
0.0
 30
0.0
 70
   128
 71
   246
 72
   222
 73
   223
  0
VERTEX
  5
222
330
49
100
AcDbEntity
  8
0
 62
     9
100
AcDbFaceRecord
 10
0.0
 20
0.0
 30
0.0
 70
   128
 71
   246
 72
   223
 73
   247
  0
VERTEX
  5
223
330
49
100
AcDbEntity
  8
0
 62
     9
100
AcDbFaceRecord
 10
0.0
 20
0.0
 30
0.0
 70
   128
 71
   247
 72
   223
 73
   200
  0
VERTEX
  5
224
330
49
100
AcDbEntity
  8
0
 62
     9
100
AcDbFaceRecord
 10
0.0
 20
0.0
 30
0.0
 70
   128
 71
   247
 72
   200
 73
   224
  0
SEQEND
  5
225
330
49
100
AcDbEntity
  8
0
 62
     9
  0
INSERT
  5
227
330
45
100
AcDbEntity
  8
0
100
AcDbBlockReference
  2
*U4
 10
0.0
 20
0.0
 30
0.0
  0
ENDBLK
  5
48
330
45
100
AcDbEntity
  8
0
100
AcDbBlockEnd
  0
BLOCK
  5
228
330
226
100
AcDbEntity
  8
0
100
AcDbBlockBegin
  2
*U4
 70
     1
 10
0.0
 20
0.0
 30
0.0
  3
*U4
  1

  0
INSERT
  5
22A
330
226
100
AcDbEntity
  8
0
100
AcDbBlockReference
  2
_STYLE_LIBRARY__DWFW3D_PUB
 10
0.0
 20
0.0
 30
0.0
  0
ARC
  5
24D
330
226
100
AcDbEntity
  8
0
 62
    18
100
AcDbCircle
 10
0.0
 20
0.0
 30
-0.0000000000001079
 40
0.0104166669771075
210
1.567431034049225E-15
220
1.0
230
1.382780567558964E-14
100
AcDbArc
 50
0.0
 51
180.0
  0
ARC
  5
24E
330
226
100
AcDbEntity
  8
0
 62
    18
100
AcDbCircle
 10
0.0
 20
0.0
 30
-0.0000000000001079
 40
0.0104166669771075
210
1.567431034049228E-15
220
1.0
230
1.382780567553474E-14
100
AcDbArc
 50
180.0
 51
0.0
  0
ARC
  5
24F
330
226
100
AcDbEntity
  8
0
 62
    18
100
AcDbCircle
 10
0.0
 20
-0.0000000007461024
 30
-0.3541666567325592
 40
0.0104166662310051
210
0.0
220
-1.0
230
0.0
100
AcDbArc
 50
209.9999976306366
 51
330.0000023693635
  0
POLYLINE
  5
250
330
226
100
AcDbEntity
  8
0
 62
    18
100
AcDb3dPolyline
 66
     1
 10
0.0
 20
0.0
 30
0.0
 70
     8
  0
VERTEX
  5
251
330
250
100
AcDbEntity
  8
0
 62
    18
100
AcDbVertex
100
AcDb3dPolylineVertex
 10
-0.0090210977941751
 20
0.3541666567325592
 30
-0.0052083334885538
 70
    32
  0
VERTEX
  5
252
330
250
100
AcDbEntity
  8
0
 62
    18
100
AcDbVertex
100
AcDb3dPolylineVertex
 10
0.0090210977941751
 20
0.3541666567325592
 30
-0.0052083334885538
 70
    32
  0
SEQEND
  5
253
330
250
100
AcDbEntity
  8
0
 62
    18
  0
ARC
  5
254
330
226
100
AcDbEntity
  8
0
 62
    18
100
AcDbCircle
 10
0.0
 20
0.0000000007461024
 30
-0.3541666567325592
 40
0.0104166662310051
210
0.0
220
-1.0
230
0.0
100
AcDbArc
 50
29.99999763063658
 51
150.0000023693634
  0
POLYLINE
  5
255
330
226
100
AcDbEntity
  8
0
 62
    18
100
AcDb3dPolyline
 66
     1
 10
0.0
 20
0.0
 30
0.0
 70
     8
  0
VERTEX
  5
256
330
255
100
AcDbEntity
  8
0
 62
    18
100
AcDbVertex
100
AcDb3dPolylineVertex
 10
0.0090210977941751
 20
0.3541666567325592
 30
0.0052083334885538
 70
    32
  0
VERTEX
  5
257
330
255
100
AcDbEntity
  8
0
 62
    18
100
AcDbVertex
100
AcDb3dPolylineVertex
 10
-0.0090210977941751
 20
0.3541666567325592
 30
0.0052083334885538
 70
    32
  0
SEQEND
  5
258
330
255
100
AcDbEntity
  8
0
 62
    18
  0
POLYLINE
  5
259
330
226
100
AcDbEntity
  8
0
 62
    18
100
AcDb3dPolyline
 66
     1
 10
0.0
 20
0.0
 30
0.0
 70
     8
  0
VERTEX
  5
25A
330
259
100
AcDbEntity
  8
0
 62
    18
100
AcDbVertex
100
AcDb3dPolylineVertex
 10
0.0104166669771075
 20
-0.0000000000001079
 30
0.0000000000000276
 70
    32
  0
VERTEX
  5
25B
330
259
100
AcDbEntity
  8
0
 62
    18
100
AcDbVertex
100
AcDb3dPolylineVertex
 10
0.0104166669771075
 20
0.3494979739189148
 30
0.0000000000000325
 70
    32
  0
SEQEND
  5
25C
330
259
100
AcDbEntity
  8
0
 62
    18
  0
POLYLINE
  5
25D
330
226
100
AcDbEntity
  8
0
 62
    18
100
AcDb3dPolyline
 66
     1
 10
0.0
 20
0.0
 30
0.0
 70
     8
  0
VERTEX
  5
25E
330
25D
100
AcDbEntity
  8
0
 62
    18
100
AcDbVertex
100
AcDb3dPolylineVertex
 10
0.0104166669771075
 20
0.3494979739189148
 30
0.0000000000000324
 70
    32
  0
VERTEX
  5
25F
330
25D
100
AcDbEntity
  8
0
 62
    18
100
AcDbVertex
100
AcDb3dPolylineVertex
 10
0.0102584138512611
 20
0.3493874967098236
 30
0.0018088351935148
 70
    32
  0
VERTEX
  5
260
330
25D
100
AcDbEntity
  8
0
 62
    18
100
AcDbVertex
100
AcDb3dPolylineVertex
 10
0.0097884647548199
 20
0.3490593731403351
 30
0.0035627097822726
 70
    32
  0
VERTEX
  5
261
330
25D
100
AcDbEntity
  8
0
 62
    18
100
AcDbVertex
100
AcDb3dPolylineVertex
 10
0.0090210977941751
 20
0.3485235869884491
 30
0.0052083334885538
 70
    32
  0
SEQEND
  5
262
330
25D
100
AcDbEntity
  8
0
 62
    18
  0
POLYLINE
  5
263
330
226
100
AcDbEntity
  8
0
 62
    18
100
AcDb3dPolyline
 66
     1
 10
0.0
 20
0.0
 30
0.0
 70
     8
  0
VERTEX
  5
264
330
263
100
AcDbEntity
  8
0
 62
    18
100
AcDbVertex
100
AcDb3dPolylineVertex
 10
0.0090210977941751
 20
0.3485235869884491
 30
0.0052083334885538
 70
    32
  0
VERTEX
  5
265
330
263
100
AcDbEntity
  8
0
 62
    18
100
AcDbVertex
100
AcDb3dPolylineVertex
 10
0.0090210977941751
 20
0.3541666567325592
 30
0.0052083334885538
 70
    32
  0
SEQEND
  5
266
330
263
100
AcDbEntity
  8
0
 62
    18
  0
POLYLINE
  5
267
330
226
100
AcDbEntity
  8
0
 62
    18
100
AcDb3dPolyline
 66
     1
 10
0.0
 20
0.0
 30
0.0
 70
     8
  0
VERTEX
  5
268
330
267
100
AcDbEntity
  8
0
 62
    18
100
AcDbVertex
100
AcDb3dPolylineVertex
 10
-0.0090210977941751
 20
0.3541666567325592
 30
0.0052083334885538
 70
    32
  0
VERTEX
  5
269
330
267
100
AcDbEntity
  8
0
 62
    18
100
AcDbVertex
100
AcDb3dPolylineVertex
 10
-0.0090210977941751
 20
0.3485235869884491
 30
0.0052083334885538
 70
    32
  0
SEQEND
  5
26A
330
267
100
AcDbEntity
  8
0
 62
    18
  0
POLYLINE
  5
26B
330
226
100
AcDbEntity
  8
0
 62
    18
100
AcDb3dPolyline
 66
     1
 10
0.0
 20
0.0
 30
0.0
 70
     8
  0
VERTEX
  5
26C
330
26B
100
AcDbEntity
  8
0
 62
    18
100
AcDbVertex
100
AcDb3dPolylineVertex
 10
-0.0090210977941751
 20
0.3485235869884491
 30
0.0052083334885538
 70
    32
  0
VERTEX
  5
26D
330
26B
100
AcDbEntity
  8
0
 62
    18
100
AcDbVertex
100
AcDb3dPolylineVertex
 10
-0.0097884647548199
 20
0.3490593731403351
 30
0.0035627097822726
 70
    32
  0
VERTEX
  5
26E
330
26B
100
AcDbEntity
  8
0
 62
    18
100
AcDbVertex
100
AcDb3dPolylineVertex
 10
-0.0102584138512611
 20
0.3493874967098236
 30
0.0018088351935148
 70
    32
  0
VERTEX
  5
26F
330
26B
100
AcDbEntity
  8
0
 62
    18
100
AcDbVertex
100
AcDb3dPolylineVertex
 10
-0.0104166669771075
 20
0.3494979739189148
 30
0.0000000000000326
 70
    32
  0
SEQEND
  5
270
330
26B
100
AcDbEntity
  8
0
 62
    18
  0
POLYLINE
  5
271
330
226
100
AcDbEntity
  8
0
 62
    18
100
AcDb3dPolyline
 66
     1
 10
0.0
 20
0.0
 30
0.0
 70
     8
  0
VERTEX
  5
272
330
271
100
AcDbEntity
  8
0
 62
    18
100
AcDbVertex
100
AcDb3dPolylineVertex
 10
-0.0104166669771075
 20
0.3494979739189148
 30
0.0000000000000326
 70
    32
  0
VERTEX
  5
273
330
271
100
AcDbEntity
  8
0
 62
    18
100
AcDbVertex
100
AcDb3dPolylineVertex
 10
-0.0104166669771075
 20
-0.0000000000001079
 30
0.0000000000000277
 70
    32
  0
SEQEND
  5
274
330
271
100
AcDbEntity
  8
0
 62
    18
  0
POLYLINE
  5
275
330
226
100
AcDbEntity
  8
0
 62
    18
100
AcDb3dPolyline
 66
     1
 10
0.0
 20
0.0
 30
0.0
 70
     8
  0
VERTEX
  5
276
330
275
100
AcDbEntity
  8
0
 62
    18
100
AcDbVertex
100
AcDb3dPolylineVertex
 10
-0.0104166669771075
 20
0.3494979739189148
 30
0.0000000000000326
 70
    32
  0
VERTEX
  5
277
330
275
100
AcDbEntity
  8
0
 62
    18
100
AcDbVertex
100
AcDb3dPolylineVertex
 10
-0.0102584138512611
 20
0.3493874967098236
 30
-0.0018088351935148
 70
    32
  0
VERTEX
  5
278
330
275
100
AcDbEntity
  8
0
 62
    18
100
AcDbVertex
100
AcDb3dPolylineVertex
 10
-0.0097884647548199
 20
0.3490593731403351
 30
-0.0035627097822726
 70
    32
  0
VERTEX
  5
279
330
275
100
AcDbEntity
  8
0
 62
    18
100
AcDbVertex
100
AcDb3dPolylineVertex
 10
-0.0090210977941751
 20
0.3485235869884491
 30
-0.0052083334885538
 70
    32
  0
SEQEND
  5
27A
330
275
100
AcDbEntity
  8
0
 62
    18
  0
POLYLINE
  5
27B
330
226
100
AcDbEntity
  8
0
 62
    18
100
AcDb3dPolyline
 66
     1
 10
0.0
 20
0.0
 30
0.0
 70
     8
  0
VERTEX
  5
27C
330
27B
100
AcDbEntity
  8
0
 62
    18
100
AcDbVertex
100
AcDb3dPolylineVertex
 10
-0.0090210977941751
 20
0.3485235869884491
 30
-0.0052083334885538
 70
    32
  0
VERTEX
  5
27D
330
27B
100
AcDbEntity
  8
0
 62
    18
100
AcDbVertex
100
AcDb3dPolylineVertex
 10
-0.0090210977941751
 20
0.3541666567325592
 30
-0.0052083334885538
 70
    32
  0
SEQEND
  5
27E
330
27B
100
AcDbEntity
  8
0
 62
    18
  0
POLYLINE
  5
27F
330
226
100
AcDbEntity
  8
0
 62
    18
100
AcDb3dPolyline
 66
     1
 10
0.0
 20
0.0
 30
0.0
 70
     8
  0
VERTEX
  5
280
330
27F
100
AcDbEntity
  8
0
 62
    18
100
AcDbVertex
100
AcDb3dPolylineVertex
 10
0.0090210977941751
 20
0.3541666567325592
 30
-0.0052083334885538
 70
    32
  0
VERTEX
  5
281
330
27F
100
AcDbEntity
  8
0
 62
    18
100
AcDbVertex
100
AcDb3dPolylineVertex
 10
0.0090210977941751
 20
0.3485235869884491
 30
-0.0052083334885538
 70
    32
  0
SEQEND
  5
282
330
27F
100
AcDbEntity
  8
0
 62
    18
  0
POLYLINE
  5
283
330
226
100
AcDbEntity
  8
0
 62
    18
100
AcDb3dPolyline
 66
     1
 10
0.0
 20
0.0
 30
0.0
 70
     8
  0
VERTEX
  5
284
330
283
100
AcDbEntity
  8
0
 62
    18
100
AcDbVertex
100
AcDb3dPolylineVertex
 10
0.0090210977941751
 20
0.3485235869884491
 30
-0.0052083334885538
 70
    32
  0
VERTEX
  5
285
330
283
100
AcDbEntity
  8
0
 62
    18
100
AcDbVertex
100
AcDb3dPolylineVertex
 10
0.0097884647548199
 20
0.3490593731403351
 30
-0.0035627097822726
 70
    32
  0
VERTEX
  5
286
330
283
100
AcDbEntity
  8
0
 62
    18
100
AcDbVertex
100
AcDb3dPolylineVertex
 10
0.0102584138512611
 20
0.3493874967098236
 30
-0.0018088351935148
 70
    32
  0
VERTEX
  5
287
330
283
100
AcDbEntity
  8
0
 62
    18
100
AcDbVertex
100
AcDb3dPolylineVertex
 10
0.0104166669771075
 20
0.3494979739189148
 30
0.0000000000000324
 70
    32
  0
SEQEND
  5
288
330
283
100
AcDbEntity
  8
0
 62
    18
  0
POLYLINE
  5
289
330
226
100
AcDbEntity
  8
0
 62
    18
100
AcDb3dPolyline
 66
     1
 10
0.0
 20
0.0
 30
0.0
 70
     8
  0
VERTEX
  5
28A
330
289
100
AcDbEntity
  8
0
 62
    18
100
AcDbVertex
100
AcDb3dPolylineVertex
 10
0.020833333954215
 20
0.40625
 30
0.0052083334885538
 70
    32
  0
VERTEX
  5
28B
330
289
100
AcDbEntity
  8
0
 62
    18
100
AcDbVertex
100
AcDb3dPolylineVertex
 10
-0.020833333954215
 20
0.40625
 30
0.0052083334885538
 70
    32
  0
SEQEND
  5
28C
330
289
100
AcDbEntity
  8
0
 62
    18
  0
POLYLINE
  5
28D
330
226
100
AcDbEntity
  8
0
 62
    18
100
AcDb3dPolyline
 66
     1
 10
0.0
 20
0.0
 30
0.0
 70
     8
  0
VERTEX
  5
28E
330
28D
100
AcDbEntity
  8
0
 62
    18
100
AcDbVertex
100
AcDb3dPolylineVertex
 10
-0.020833333954215
 20
0.40625
 30
0.0052083334885538
 70
    32
  0
VERTEX
  5
28F
330
28D
100
AcDbEntity
  8
0
 62
    18
100
AcDbVertex
100
AcDb3dPolylineVertex
 10
-0.020833333954215
 20
0.3567708432674408
 30
0.0052083334885538
 70
    32
  0
SEQEND
  5
290
330
28D
100
AcDbEntity
  8
0
 62
    18
  0
POLYLINE
  5
291
330
226
100
AcDbEntity
  8
0
 62
    18
100
AcDb3dPolyline
 66
     1
 10
0.0
 20
0.0
 30
0.0
 70
     8
  0
VERTEX
  5
292
330
291
100
AcDbEntity
  8
0
 62
    18
100
AcDbVertex
100
AcDb3dPolylineVertex
 10
-0.020833333954215
 20
0.3567708432674408
 30
0.0052083334885538
 70
    32
  0
VERTEX
  5
293
330
291
100
AcDbEntity
  8
0
 62
    18
100
AcDbVertex
100
AcDb3dPolylineVertex
 10
-0.0090210977941751
 20
0.3485235869884491
 30
0.0052083334885538
 70
    32
  0
SEQEND
  5
294
330
291
100
AcDbEntity
  8
0
 62
    18
  0
POLYLINE
  5
295
330
226
100
AcDbEntity
  8
0
 62
    18
100
AcDb3dPolyline
 66
     1
 10
0.0
 20
0.0
 30
0.0
 70
     8
  0
VERTEX
  5
296
330
295
100
AcDbEntity
  8
0
 62
    18
100
AcDbVertex
100
AcDb3dPolylineVertex
 10
0.0090210977941751
 20
0.3485235869884491
 30
0.0052083334885538
 70
    32
  0
VERTEX
  5
297
330
295
100
AcDbEntity
  8
0
 62
    18
100
AcDbVertex
100
AcDb3dPolylineVertex
 10
0.020833333954215
 20
0.3567708432674408
 30
0.0052083334885538
 70
    32
  0
SEQEND
  5
298
330
295
100
AcDbEntity
  8
0
 62
    18
  0
POLYLINE
  5
299
330
226
100
AcDbEntity
  8
0
 62
    18
100
AcDb3dPolyline
 66
     1
 10
0.0
 20
0.0
 30
0.0
 70
     8
  0
VERTEX
  5
29A
330
299
100
AcDbEntity
  8
0
 62
    18
100
AcDbVertex
100
AcDb3dPolylineVertex
 10
0.020833333954215
 20
0.3567708432674408
 30
0.0052083334885538
 70
    32
  0
VERTEX
  5
29B
330
299
100
AcDbEntity
  8
0
 62
    18
100
AcDbVertex
100
AcDb3dPolylineVertex
 10
0.020833333954215
 20
0.40625
 30
0.0052083334885538
 70
    32
  0
SEQEND
  5
29C
330
299
100
AcDbEntity
  8
0
 62
    18
  0
ARC
  5
29D
330
226
100
AcDbEntity
  8
0
 62
    18
100
AcDbCircle
 10
0.0
 20
0.375
 30
0.0052083334885538
 40
0.0104166723055377
100
AcDbArc
 50
45.00003078914921
 51
225.0000307891492
  0
ARC
  5
29E
330
226
100
AcDbEntity
  8
0
 62
    18
100
AcDbCircle
 10
0.0
 20
0.375
 30
0.0052083334885538
 40
0.0104166723055377
100
AcDbArc
 50
225.0000307891492
 51
45.00003078914921
  0
POLYLINE
  5
29F
330
226
100
AcDbEntity
  8
0
 62
    18
100
AcDb3dPolyline
 66
     1
 10
0.0
 20
0.0
 30
0.0
 70
     8
  0
VERTEX
  5
2A0
330
29F
100
AcDbEntity
  8
0
 62
    18
100
AcDbVertex
100
AcDb3dPolylineVertex
 10
0.020833333954215
 20
0.40625
 30
-0.0052083334885538
 70
    32
  0
VERTEX
  5
2A1
330
29F
100
AcDbEntity
  8
0
 62
    18
100
AcDbVertex
100
AcDb3dPolylineVertex
 10
0.020833333954215
 20
0.3567708432674408
 30
-0.0052083334885538
 70
    32
  0
SEQEND
  5
2A2
330
29F
100
AcDbEntity
  8
0
 62
    18
  0
POLYLINE
  5
2A3
330
226
100
AcDbEntity
  8
0
 62
    18
100
AcDb3dPolyline
 66
     1
 10
0.0
 20
0.0
 30
0.0
 70
     8
  0
VERTEX
  5
2A4
330
2A3
100
AcDbEntity
  8
0
 62
    18
100
AcDbVertex
100
AcDb3dPolylineVertex
 10
0.020833333954215
 20
0.3567708432674408
 30
-0.0052083334885538
 70
    32
  0
VERTEX
  5
2A5
330
2A3
100
AcDbEntity
  8
0
 62
    18
100
AcDbVertex
100
AcDb3dPolylineVertex
 10
0.0090210977941751
 20
0.3485235869884491
 30
-0.0052083334885538
 70
    32
  0
SEQEND
  5
2A6
330
2A3
100
AcDbEntity
  8
0
 62
    18
  0
POLYLINE
  5
2A7
330
226
100
AcDbEntity
  8
0
 62
    18
100
AcDb3dPolyline
 66
     1
 10
0.0
 20
0.0
 30
0.0
 70
     8
  0
VERTEX
  5
2A8
330
2A7
100
AcDbEntity
  8
0
 62
    18
100
AcDbVertex
100
AcDb3dPolylineVertex
 10
-0.0090210977941751
 20
0.3485235869884491
 30
-0.0052083334885538
 70
    32
  0
VERTEX
  5
2A9
330
2A7
100
AcDbEntity
  8
0
 62
    18
100
AcDbVertex
100
AcDb3dPolylineVertex
 10
-0.020833333954215
 20
0.3567708432674408
 30
-0.0052083334885538
 70
    32
  0
SEQEND
  5
2AA
330
2A7
100
AcDbEntity
  8
0
 62
    18
  0
POLYLINE
  5
2AB
330
226
100
AcDbEntity
  8
0
 62
    18
100
AcDb3dPolyline
 66
     1
 10
0.0
 20
0.0
 30
0.0
 70
     8
  0
VERTEX
  5
2AC
330
2AB
100
AcDbEntity
  8
0
 62
    18
100
AcDbVertex
100
AcDb3dPolylineVertex
 10
-0.020833333954215
 20
0.3567708432674408
 30
-0.0052083334885538
 70
    32
  0
VERTEX
  5
2AD
330
2AB
100
AcDbEntity
  8
0
 62
    18
100
AcDbVertex
100
AcDb3dPolylineVertex
 10
-0.020833333954215
 20
0.40625
 30
-0.0052083334885538
 70
    32
  0
SEQEND
  5
2AE
330
2AB
100
AcDbEntity
  8
0
 62
    18
  0
POLYLINE
  5
2AF
330
226
100
AcDbEntity
  8
0
 62
    18
100
AcDb3dPolyline
 66
     1
 10
0.0
 20
0.0
 30
0.0
 70
     8
  0
VERTEX
  5
2B0
330
2AF
100
AcDbEntity
  8
0
 62
    18
100
AcDbVertex
100
AcDb3dPolylineVertex
 10
-0.020833333954215
 20
0.40625
 30
-0.0052083334885538
 70
    32
  0
VERTEX
  5
2B1
330
2AF
100
AcDbEntity
  8
0
 62
    18
100
AcDbVertex
100
AcDb3dPolylineVertex
 10
0.020833333954215
 20
0.40625
 30
-0.0052083334885538
 70
    32
  0
SEQEND
  5
2B2
330
2AF
100
AcDbEntity
  8
0
 62
    18
  0
ARC
  5
2B3
330
226
100
AcDbEntity
  8
0
 62
    18
100
AcDbCircle
 10
0.0
 20
0.375
 30
0.0052083334885538
 40
0.0104166723055377
210
0.0
220
0.0
230
-1.0
100
AcDbArc
 50
134.9999692108508
 51
314.9999692108508
  0
ARC
  5
2B4
330
226
100
AcDbEntity
  8
0
 62
    18
100
AcDbCircle
 10
0.0
 20
0.375
 30
0.0052083334885538
 40
0.0104166723055377
210
0.0
220
0.0
230
-1.0
100
AcDbArc
 50
314.9999692108508
 51
134.9999692108508
  0
POLYLINE
  5
2B5
330
226
100
AcDbEntity
  8
0
 62
    18
100
AcDb3dPolyline
 66
     1
 10
0.0
 20
0.0
 30
0.0
 70
     8
  0
VERTEX
  5
2B6
330
2B5
100
AcDbEntity
  8
0
 62
    18
100
AcDbVertex
100
AcDb3dPolylineVertex
 10
0.020833333954215
 20
0.40625
 30
0.0052083334885538
 70
    32
  0
VERTEX
  5
2B7
330
2B5
100
AcDbEntity
  8
0
 62
    18
100
AcDbVertex
100
AcDb3dPolylineVertex
 10
0.020833333954215
 20
0.40625
 30
-0.0052083334885538
 70
    32
  0
SEQEND
  5
2B8
330
2B5
100
AcDbEntity
  8
0
 62
    18
  0
POLYLINE
  5
2B9
330
226
100
AcDbEntity
  8
0
 62
    18
100
AcDb3dPolyline
 66
     1
 10
0.0
 20
0.0
 30
0.0
 70
     8
  0
VERTEX
  5
2BA
330
2B9
100
AcDbEntity
  8
0
 62
    18
100
AcDbVertex
100
AcDb3dPolylineVertex
 10
-0.020833333954215
 20
0.40625
 30
-0.0052083334885538
 70
    32
  0
VERTEX
  5
2BB
330
2B9
100
AcDbEntity
  8
0
 62
    18
100
AcDbVertex
100
AcDb3dPolylineVertex
 10
-0.020833333954215
 20
0.40625
 30
0.0052083334885538
 70
    32
  0
SEQEND
  5
2BC
330
2B9
100
AcDbEntity
  8
0
 62
    18
  0
POLYLINE
  5
2BD
330
226
100
AcDbEntity
  8
0
 62
    18
100
AcDb3dPolyline
 66
     1
 10
0.0
 20
0.0
 30
0.0
 70
     8
  0
VERTEX
  5
2BE
330
2BD
100
AcDbEntity
  8
0
 62
    18
100
AcDbVertex
100
AcDb3dPolylineVertex
 10
-0.020833333954215
 20
0.3567708432674408
 30
-0.0052083334885538
 70
    32
  0
VERTEX
  5
2BF
330
2BD
100
AcDbEntity
  8
0
 62
    18
100
AcDbVertex
100
AcDb3dPolylineVertex
 10
-0.020833333954215
 20
0.3567708432674408
 30
0.0052083334885538
 70
    32
  0
SEQEND
  5
2C0
330
2BD
100
AcDbEntity
  8
0
 62
    18
  0
POLYLINE
  5
2C1
330
226
100
AcDbEntity
  8
0
 62
    18
100
AcDb3dPolyline
 66
     1
 10
0.0
 20
0.0
 30
0.0
 70
     8
  0
VERTEX
  5
2C2
330
2C1
100
AcDbEntity
  8
0
 62
    18
100
AcDbVertex
100
AcDb3dPolylineVertex
 10
0.020833333954215
 20
0.3567708432674408
 30
-0.0052083334885538
 70
    32
  0
VERTEX
  5
2C3
330
2C1
100
AcDbEntity
  8
0
 62
    18
100
AcDbVertex
100
AcDb3dPolylineVertex
 10
0.020833333954215
 20
0.3567708432674408
 30
0.0052083334885538
 70
    32
  0
SEQEND
  5
2C4
330
2C1
100
AcDbEntity
  8
0
 62
    18
  0
POLYLINE
  5
2C5
330
226
100
AcDbEntity
  8
0
 62
    18
100
AcDb3dPolyline
 66
     1
 10
0.0
 20
0.0
 30
0.0
 70
     8
  0
VERTEX
  5
2C6
330
2C5
100
AcDbEntity
  8
0
 62
    18
100
AcDbVertex
100
AcDb3dPolylineVertex
 10
-0.0073656956665218
 20
0.3676342964172363
 30
0.0052083334885538
 70
    32
  0
VERTEX
  5
2C7
330
2C5
100
AcDbEntity
  8
0
 62
    18
100
AcDbVertex
100
AcDb3dPolylineVertex
 10
-0.0073656956665218
 20
0.3676342964172363
 30
-0.0052083334885538
 70
    32
  0
SEQEND
  5
2C8
330
2C5
100
AcDbEntity
  8
0
 62
    18
  0
POLYLINE
  5
2C9
330
226
100
AcDbEntity
  8
0
 62
    18
100
AcDb3dPolyline
 66
     1
 10
0.0
 20
0.0
 30
0.0
 70
     8
  0
VERTEX
  5
2CA
330
2C9
100
AcDbEntity
  8
0
 62
    18
100
AcDbVertex
100
AcDb3dPolylineVertex
 10
0.0073656956665218
 20
0.3823657035827637
 30
-0.0052083334885538
 70
    32
  0
VERTEX
  5
2CB
330
2C9
100
AcDbEntity
  8
0
 62
    18
100
AcDbVertex
100
AcDb3dPolylineVertex
 10
0.0073656956665218
 20
0.3823657035827637
 30
0.0052083334885538
 70
    32
  0
SEQEND
  5
2CC
330
2C9
100
AcDbEntity
  8
0
 62
    18
  0
ENDBLK
  5
229
330
226
100
AcDbEntity
  8
0
100
AcDbBlockEnd
  0
BLOCK
  5
2CF
330
2CD
100
AcDbEntity
  8
0
100
AcDbBlockBegin
  2
*U5
 70
     1
 10
0.0
 20
0.0
 30
0.0
  3
*U5
  1

  0
INSERT
  5
2D2
330
2CD
100
AcDbEntity
  8
0
100
AcDbBlockReference
  2
92
 10
0.0
 20
0.0
 30
0.0
  0
INSERT
  5
3B7
330
2CD
100
AcDbEntity
  8
0
100
AcDbBlockReference
  2
98
 10
0.0
 20
0.0
 30
0.0
  0
ENDBLK
  5
2D0
330
2CD
100
AcDbEntity
  8
0
100
AcDbBlockEnd
  0
BLOCK
  5
2D3
330
2D1
100
AcDbEntity
  8
0
100
AcDbBlockBegin
  2
92
 70
     0
 10
0.0
 20
0.0
 30
0.0
  3
92
  1

  0
INSERT
  5
2D6
330
2D1
100
AcDbEntity
  8
0
100
AcDbBlockReference
  2
93
 10
0.0
 20
0.0
 30
0.0
  0
ENDBLK
  5
2D4
330
2D1
100
AcDbEntity
  8
0
100
AcDbBlockEnd
  0
BLOCK
  5
2D7
330
2D5
100
AcDbEntity
  8
0
100
AcDbBlockBegin
  2
93
 70
     0
 10
0.0
 20
0.0
 30
0.0
  3
93
  1

  0
INSERT
  5
2DA
330
2D5
100
AcDbEntity
  8
0
100
AcDbBlockReference
  2
94
 10
0.0
 20
0.0
 30
0.0
  0
ENDBLK
  5
2D8
330
2D5
100
AcDbEntity
  8
0
100
AcDbBlockEnd
  0
BLOCK
  5
2DB
330
2D9
100
AcDbEntity
  8
0
100
AcDbBlockBegin
  2
94
 70
     0
 10
0.0
 20
0.0
 30
0.0
  3
94
  1

  0
INSERT
  5
2DE
330
2D9
100
AcDbEntity
  8
0
100
AcDbBlockReference
  2
95
 10
0.0
 20
0.0
 30
0.0
  0
ENDBLK
  5
2DC
330
2D9
100
AcDbEntity
  8
0
100
AcDbBlockEnd
  0
BLOCK
  5
2DF
330
2DD
100
AcDbEntity
  8
0
100
AcDbBlockBegin
  2
95
 70
     0
 10
0.0
 20
0.0
 30
0.0
  3
95
  1

  0
INSERT
  5
2E2
330
2DD
100
AcDbEntity
  8
0
100
AcDbBlockReference
  2
*U10
 10
0.0
 20
0.0
 30
0.0
  0
ENDBLK
  5
2E0
330
2DD
100
AcDbEntity
  8
0
100
AcDbBlockEnd
  0
BLOCK
  5
2E3
330
2E1
100
AcDbEntity
  8
0
100
AcDbBlockBegin
  2
*U10
 70
     1
 10
0.0
 20
0.0
 30
0.0
  3
*U10
  1

  0
POLYLINE
  5
2E5
330
2E1
100
AcDbEntity
  8
0
 62
     9
100
AcDbPolyFaceMesh
 66
     1
 10
0.0
 20
0.0
 30
0.0
 70
    64
 71
    98
 72
    92
  0
VERTEX
  5
2E6
330
2E5
100
AcDbEntity
  8
0
 62
     9
100
AcDbVertex
100
AcDbPolyFaceMeshVertex
 10
6.0
 20
0.3731585741043091
 30
0.0018414239166304
 70
   192
  0
VERTEX
  5
2E7
330
2E5
100
AcDbEntity
  8
0
 62
     9
100
AcDbVertex
100
AcDbPolyFaceMeshVertex
 10
6.0
 20
0.3727447390556335
 30
0.0013020833721384
 70
   192
  0
VERTEX
  5
2E8
330
2E5
100
AcDbEntity
  8
0
 62
     9
100
AcDbVertex
100
AcDbPolyFaceMeshVertex
 10
6.0
 20
0.372484564781189
 30
0.0006740079261363
 70
   192
  0
VERTEX
  5
2E9
330
2E5
100
AcDbEntity
  8
0
 62
     9
100
AcDbVertex
100
AcDbPolyFaceMeshVertex
 10
6.0
 20
0.3723958432674408
 30
0.0000000000000225
 70
   192
  0
VERTEX
  5
2EA
330
2E5
100
AcDbEntity
  8
0
 62
     9
100
AcDbVertex
100
AcDbPolyFaceMeshVertex
 10
6.0
 20
0.372484564781189
 30
-0.0006740079261363
 70
   192
  0
VERTEX
  5
2EB
330
2E5
100
AcDbEntity
  8
0
 62
     9
100
AcDbVertex
100
AcDbPolyFaceMeshVertex
 10
6.0
 20
0.3727447390556335
 30
-0.0013020833721384
 70
   192
  0
VERTEX
  5
2EC
330
2E5
100
AcDbEntity
  8
0
 62
     9
100
AcDbVertex
100
AcDbPolyFaceMeshVertex
 10
6.0
 20
0.3731585741043091
 30
-0.0018414239166304
 70
   192
  0
VERTEX
  5
2ED
330
2E5
100
AcDbEntity
  8
0
 62
     9
100
AcDbVertex
100
AcDbPolyFaceMeshVertex
 10
6.0
 20
0.3736979067325592
 30
-0.0022552744485438
 70
   192
  0
VERTEX
  5
2EE
330
2E5
100
AcDbEntity
  8
0
 62
     9
100
AcDbVertex
100
AcDbPolyFaceMeshVertex
 10
6.0
 20
0.3743259906768799
 30
-0.0025154317263514
 70
   192
  0
VERTEX
  5
2EF
330
2E5
100
AcDbEntity
  8
0
 62
     9
100
AcDbVertex
100
AcDbPolyFaceMeshVertex
 10
6.0
 20
0.375
 30
-0.0026041667442769
 70
   192
  0
VERTEX
  5
2F0
330
2E5
100
AcDbEntity
  8
0
 62
     9
100
AcDbVertex
100
AcDbPolyFaceMeshVertex
 10
6.0
 20
0.3756740093231201
 30
-0.0025154317263514
 70
   192
  0
VERTEX
  5
2F1
330
2E5
100
AcDbEntity
  8
0
 62
     9
100
AcDbVertex
100
AcDbPolyFaceMeshVertex
 10
6.0
 20
0.3763020932674408
 30
-0.0022552744485438
 70
   192
  0
VERTEX
  5
2F2
330
2E5
100
AcDbEntity
  8
0
 62
     9
100
AcDbVertex
100
AcDbPolyFaceMeshVertex
 10
6.0
 20
0.3768414258956909
 30
-0.0018414239166304
 70
   192
  0
VERTEX
  5
2F3
330
2E5
100
AcDbEntity
  8
0
 62
     9
100
AcDbVertex
100
AcDbPolyFaceMeshVertex
 10
6.0
 20
0.3772552609443665
 30
-0.0013020833721384
 70
   192
  0
VERTEX
  5
2F4
330
2E5
100
AcDbEntity
  8
0
 62
     9
100
AcDbVertex
100
AcDbPolyFaceMeshVertex
 10
6.0
 20
0.377515435218811
 30
-0.0006740079261363
 70
   192
  0
VERTEX
  5
2F5
330
2E5
100
AcDbEntity
  8
0
 62
     9
100
AcDbVertex
100
AcDbPolyFaceMeshVertex
 10
6.0
 20
0.3776041567325592
 30
0.0000000000000225
 70
   192
  0
VERTEX
  5
2F6
330
2E5
100
AcDbEntity
  8
0
 62
     9
100
AcDbVertex
100
AcDbPolyFaceMeshVertex
 10
6.0
 20
0.377515435218811
 30
0.0006740079261363
 70
   192
  0
VERTEX
  5
2F7
330
2E5
100
AcDbEntity
  8
0
 62
     9
100
AcDbVertex
100
AcDbPolyFaceMeshVertex
 10
6.0
 20
0.3772552609443665
 30
0.0013020833721384
 70
   192
  0
VERTEX
  5
2F8
330
2E5
100
AcDbEntity
  8
0
 62
     9
100
AcDbVertex
100
AcDbPolyFaceMeshVertex
 10
6.0
 20
0.3768414258956909
 30
0.0018414239166304
 70
   192
  0
VERTEX
  5
2F9
330
2E5
100
AcDbEntity
  8
0
 62
     9
100
AcDbVertex
100
AcDbPolyFaceMeshVertex
 10
6.0
 20
0.3763020932674408
 30
0.0022552744485438
 70
   192
  0
VERTEX
  5
2FA
330
2E5
100
AcDbEntity
  8
0
 62
     9
100
AcDbVertex
100
AcDbPolyFaceMeshVertex
 10
6.0
 20
0.3756740093231201
 30
0.0025154317263514
 70
   192
  0
VERTEX
  5
2FB
330
2E5
100
AcDbEntity
  8
0
 62
     9
100
AcDbVertex
100
AcDbPolyFaceMeshVertex
 10
6.0
 20
0.375
 30
0.0026041667442769
 70
   192
  0
VERTEX
  5
2FC
330
2E5
100
AcDbEntity
  8
0
 62
     9
100
AcDbVertex
100
AcDbPolyFaceMeshVertex
 10
6.0
 20
0.3743259906768799
 30
0.0025154317263514
 70
   192
  0
VERTEX
  5
2FD
330
2E5
100
AcDbEntity
  8
0
 62
     9
100
AcDbVertex
100
AcDbPolyFaceMeshVertex
 10
6.0
 20
0.3736979067325592
 30
0.0022552744485438
 70
   192
  0
VERTEX
  5
2FE
330
2E5
100
AcDbEntity
  8
0
 62
     9
100
AcDbVertex
100
AcDbPolyFaceMeshVertex
 10
0.0000000000000195
 20
0.3723958432674408
 30
0.0000000000000225
 70
   192
  0
VERTEX
  5
2FF
330
2E5
100
AcDbEntity
  8
0
 62
     9
100
AcDbVertex
100
AcDbPolyFaceMeshVertex
 10
0.0000000000000195
 20
0.372484564781189
 30
0.0006740079261363
 70
   192
  0
VERTEX
  5
300
330
2E5
100
AcDbEntity
  8
0
 62
     9
100
AcDbVertex
100
AcDbPolyFaceMeshVertex
 10
0.0000000000000195
 20
0.3727447390556335
 30
0.0013020833721384
 70
   192
  0
VERTEX
  5
301
330
2E5
100
AcDbEntity
  8
0
 62
     9
100
AcDbVertex
100
AcDbPolyFaceMeshVertex
 10
0.0000000000000195
 20
0.3731585741043091
 30
0.0018414239166304
 70
   192
  0
VERTEX
  5
302
330
2E5
100
AcDbEntity
  8
0
 62
     9
100
AcDbVertex
100
AcDbPolyFaceMeshVertex
 10
0.0000000000000195
 20
0.3736979067325592
 30
0.0022552744485438
 70
   192
  0
VERTEX
  5
303
330
2E5
100
AcDbEntity
  8
0
 62
     9
100
AcDbVertex
100
AcDbPolyFaceMeshVertex
 10
0.0000000000000195
 20
0.3743259906768799
 30
0.0025154317263514
 70
   192
  0
VERTEX
  5
304
330
2E5
100
AcDbEntity
  8
0
 62
     9
100
AcDbVertex
100
AcDbPolyFaceMeshVertex
 10
0.0000000000000195
 20
0.375
 30
0.0026041667442769
 70
   192
  0
VERTEX
  5
305
330
2E5
100
AcDbEntity
  8
0
 62
     9
100
AcDbVertex
100
AcDbPolyFaceMeshVertex
 10
0.0000000000000195
 20
0.3756740093231201
 30
0.0025154317263514
 70
   192
  0
VERTEX
  5
306
330
2E5
100
AcDbEntity
  8
0
 62
     9
100
AcDbVertex
100
AcDbPolyFaceMeshVertex
 10
0.0000000000000195
 20
0.3763020932674408
 30
0.0022552744485438
 70
   192
  0
VERTEX
  5
307
330
2E5
100
AcDbEntity
  8
0
 62
     9
100
AcDbVertex
100
AcDbPolyFaceMeshVertex
 10
0.0000000000000195
 20
0.3768414258956909
 30
0.0018414239166304
 70
   192
  0
VERTEX
  5
308
330
2E5
100
AcDbEntity
  8
0
 62
     9
100
AcDbVertex
100
AcDbPolyFaceMeshVertex
 10
0.0000000000000195
 20
0.3772552609443665
 30
0.0013020833721384
 70
   192
  0
VERTEX
  5
309
330
2E5
100
AcDbEntity
  8
0
 62
     9
100
AcDbVertex
100
AcDbPolyFaceMeshVertex
 10
0.0000000000000195
 20
0.377515435218811
 30
0.0006740079261363
 70
   192
  0
VERTEX
  5
30A
330
2E5
100
AcDbEntity
  8
0
 62
     9
100
AcDbVertex
100
AcDbPolyFaceMeshVertex
 10
0.0000000000000195
 20
0.3776041567325592
 30
0.0000000000000225
 70
   192
  0
VERTEX
  5
30B
330
2E5
100
AcDbEntity
  8
0
 62
     9
100
AcDbVertex
100
AcDbPolyFaceMeshVertex
 10
0.0000000000000195
 20
0.377515435218811
 30
-0.0006740079261363
 70
   192
  0
VERTEX
  5
30C
330
2E5
100
AcDbEntity
  8
0
 62
     9
100
AcDbVertex
100
AcDbPolyFaceMeshVertex
 10
0.0000000000000195
 20
0.3772552609443665
 30
-0.0013020833721384
 70
   192
  0
VERTEX
  5
30D
330
2E5
100
AcDbEntity
  8
0
 62
     9
100
AcDbVertex
100
AcDbPolyFaceMeshVertex
 10
0.0000000000000195
 20
0.3768414258956909
 30
-0.0018414239166304
 70
   192
  0
VERTEX
  5
30E
330
2E5
100
AcDbEntity
  8
0
 62
     9
100
AcDbVertex
100
AcDbPolyFaceMeshVertex
 10
0.0000000000000195
 20
0.3763020932674408
 30
-0.0022552744485438
 70
   192
  0
VERTEX
  5
30F
330
2E5
100
AcDbEntity
  8
0
 62
     9
100
AcDbVertex
100
AcDbPolyFaceMeshVertex
 10
0.0000000000000195
 20
0.3756740093231201
 30
-0.0025154317263514
 70
   192
  0
VERTEX
  5
310
330
2E5
100
AcDbEntity
  8
0
 62
     9
100
AcDbVertex
100
AcDbPolyFaceMeshVertex
 10
0.0000000000000195
 20
0.375
 30
-0.0026041667442769
 70
   192
  0
VERTEX
  5
311
330
2E5
100
AcDbEntity
  8
0
 62
     9
100
AcDbVertex
100
AcDbPolyFaceMeshVertex
 10
0.0000000000000195
 20
0.3743259906768799
 30
-0.0025154317263514
 70
   192
  0
VERTEX
  5
312
330
2E5
100
AcDbEntity
  8
0
 62
     9
100
AcDbVertex
100
AcDbPolyFaceMeshVertex
 10
0.0000000000000195
 20
0.3736979067325592
 30
-0.0022552744485438
 70
   192
  0
VERTEX
  5
313
330
2E5
100
AcDbEntity
  8
0
 62
     9
100
AcDbVertex
100
AcDbPolyFaceMeshVertex
 10
0.0000000000000195
 20
0.3731585741043091
 30
-0.0018414239166304
 70
   192
  0
VERTEX
  5
314
330
2E5
100
AcDbEntity
  8
0
 62
     9
100
AcDbVertex
100
AcDbPolyFaceMeshVertex
 10
0.0000000000000195
 20
0.3727447390556335
 30
-0.0013020833721384
 70
   192
  0
VERTEX
  5
315
330
2E5
100
AcDbEntity
  8
0
 62
     9
100
AcDbVertex
100
AcDbPolyFaceMeshVertex
 10
0.0000000000000195
 20
0.372484564781189
 30
-0.0006740079261363
 70
   192
  0
VERTEX
  5
316
330
2E5
100
AcDbEntity
  8
0
 62
     9
100
AcDbVertex
100
AcDbPolyFaceMeshVertex
 10
0.0000000000000195
 20
0.3756740093231201
 30
-0.0025154317263514
 70
   192
  0
VERTEX
  5
317
330
2E5
100
AcDbEntity
  8
0
 62
     9
100
AcDbVertex
100
AcDbPolyFaceMeshVertex
 10
0.0000000000000195
 20
0.3763020932674408
 30
-0.0022552744485438
 70
   192
  0
VERTEX
  5
318
330
2E5
100
AcDbEntity
  8
0
 62
     9
100
AcDbVertex
100
AcDbPolyFaceMeshVertex
 10
0.0000000000000195
 20
0.3768414258956909
 30
-0.0018414239166304
 70
   192
  0
VERTEX
  5
319
330
2E5
100
AcDbEntity
  8
0
 62
     9
100
AcDbVertex
100
AcDbPolyFaceMeshVertex
 10
0.0000000000000195
 20
0.3772552609443665
 30
-0.0013020833721384
 70
   192
  0
VERTEX
  5
31A
330
2E5
100
AcDbEntity
  8
0
 62
     9
100
AcDbVertex
100
AcDbPolyFaceMeshVertex
 10
0.0000000000000195
 20
0.377515435218811
 30
-0.0006740079261363
 70
   192
  0
VERTEX
  5
31B
330
2E5
100
AcDbEntity
  8
0
 62
     9
100
AcDbVertex
100
AcDbPolyFaceMeshVertex
 10
0.0000000000000195
 20
0.3776041567325592
 30
0.0000000000000225
 70
   192
  0
VERTEX
  5
31C
330
2E5
100
AcDbEntity
  8
0
 62
     9
100
AcDbVertex
100
AcDbPolyFaceMeshVertex
 10
0.0000000000000195
 20
0.377515435218811
 30
0.0006740079261363
 70
   192
  0
VERTEX
  5
31D
330
2E5
100
AcDbEntity
  8
0
 62
     9
100
AcDbVertex
100
AcDbPolyFaceMeshVertex
 10
0.0000000000000195
 20
0.3772552609443665
 30
0.0013020833721384
 70
   192
  0
VERTEX
  5
31E
330
2E5
100
AcDbEntity
  8
0
 62
     9
100
AcDbVertex
100
AcDbPolyFaceMeshVertex
 10
0.0000000000000195
 20
0.3768414258956909
 30
0.0018414239166304
 70
   192
  0
VERTEX
  5
31F
330
2E5
100
AcDbEntity
  8
0
 62
     9
100
AcDbVertex
100
AcDbPolyFaceMeshVertex
 10
0.0000000000000195
 20
0.3763020932674408
 30
0.0022552744485438
 70
   192
  0
VERTEX
  5
320
330
2E5
100
AcDbEntity
  8
0
 62
     9
100
AcDbVertex
100
AcDbPolyFaceMeshVertex
 10
0.0000000000000195
 20
0.3756740093231201
 30
0.0025154317263514
 70
   192
  0
VERTEX
  5
321
330
2E5
100
AcDbEntity
  8
0
 62
     9
100
AcDbVertex
100
AcDbPolyFaceMeshVertex
 10
0.0000000000000195
 20
0.375
 30
0.0026041667442769
 70
   192
  0
VERTEX
  5
322
330
2E5
100
AcDbEntity
  8
0
 62
     9
100
AcDbVertex
100
AcDbPolyFaceMeshVertex
 10
6.0
 20
0.375
 30
0.0026041667442769
 70
   192
  0
VERTEX
  5
323
330
2E5
100
AcDbEntity
  8
0
 62
     9
100
AcDbVertex
100
AcDbPolyFaceMeshVertex
 10
6.0
 20
0.3756740093231201
 30
0.0025154317263514
 70
   192
  0
VERTEX
  5
324
330
2E5
100
AcDbEntity
  8
0
 62
     9
100
AcDbVertex
100
AcDbPolyFaceMeshVertex
 10
6.0
 20
0.3763020932674408
 30
0.0022552744485438
 70
   192
  0
VERTEX
  5
325
330
2E5
100
AcDbEntity
  8
0
 62
     9
100
AcDbVertex
100
AcDbPolyFaceMeshVertex
 10
6.0
 20
0.3768414258956909
 30
0.0018414239166304
 70
   192
  0
VERTEX
  5
326
330
2E5
100
AcDbEntity
  8
0
 62
     9
100
AcDbVertex
100
AcDbPolyFaceMeshVertex
 10
6.0
 20
0.3772552609443665
 30
0.0013020833721384
 70
   192
  0
VERTEX
  5
327
330
2E5
100
AcDbEntity
  8
0
 62
     9
100
AcDbVertex
100
AcDbPolyFaceMeshVertex
 10
6.0
 20
0.377515435218811
 30
0.0006740079261363
 70
   192
  0
VERTEX
  5
328
330
2E5
100
AcDbEntity
  8
0
 62
     9
100
AcDbVertex
100
AcDbPolyFaceMeshVertex
 10
6.0
 20
0.3776041567325592
 30
0.0000000000000225
 70
   192
  0
VERTEX
  5
329
330
2E5
100
AcDbEntity
  8
0
 62
     9
100
AcDbVertex
100
AcDbPolyFaceMeshVertex
 10
6.0
 20
0.377515435218811
 30
-0.0006740079261363
 70
   192
  0
VERTEX
  5
32A
330
2E5
100
AcDbEntity
  8
0
 62
     9
100
AcDbVertex
100
AcDbPolyFaceMeshVertex
 10
6.0
 20
0.3772552609443665
 30
-0.0013020833721384
 70
   192
  0
VERTEX
  5
32B
330
2E5
100
AcDbEntity
  8
0
 62
     9
100
AcDbVertex
100
AcDbPolyFaceMeshVertex
 10
6.0
 20
0.3768414258956909
 30
-0.0018414239166304
 70
   192
  0
VERTEX
  5
32C
330
2E5
100
AcDbEntity
  8
0
 62
     9
100
AcDbVertex
100
AcDbPolyFaceMeshVertex
 10
6.0
 20
0.3763020932674408
 30
-0.0022552744485438
 70
   192
  0
VERTEX
  5
32D
330
2E5
100
AcDbEntity
  8
0
 62
     9
100
AcDbVertex
100
AcDbPolyFaceMeshVertex
 10
6.0
 20
0.3756740093231201
 30
-0.0025154317263514
 70
   192
  0
VERTEX
  5
32E
330
2E5
100
AcDbEntity
  8
0
 62
     9
100
AcDbVertex
100
AcDbPolyFaceMeshVertex
 10
6.0
 20
0.375
 30
-0.0026041667442769
 70
   192
  0
VERTEX
  5
32F
330
2E5
100
AcDbEntity
  8
0
 62
     9
100
AcDbVertex
100
AcDbPolyFaceMeshVertex
 10
6.0
 20
0.3743259906768799
 30
-0.0025154317263514
 70
   192
  0
VERTEX
  5
330
330
2E5
100
AcDbEntity
  8
0
 62
     9
100
AcDbVertex
100
AcDbPolyFaceMeshVertex
 10
6.0
 20
0.3736979067325592
 30
-0.0022552744485438
 70
   192
  0
VERTEX
  5
331
330
2E5
100
AcDbEntity
  8
0
 62
     9
100
AcDbVertex
100
AcDbPolyFaceMeshVertex
 10
6.0
 20
0.3731585741043091
 30
-0.0018414239166304
 70
   192
  0
VERTEX
  5
332
330
2E5
100
AcDbEntity
  8
0
 62
     9
100
AcDbVertex
100
AcDbPolyFaceMeshVertex
 10
6.0
 20
0.3727447390556335
 30
-0.0013020833721384
 70
   192
  0
VERTEX
  5
333
330
2E5
100
AcDbEntity
  8
0
 62
     9
100
AcDbVertex
100
AcDbPolyFaceMeshVertex
 10
6.0
 20
0.372484564781189
 30
-0.0006740079261363
 70
   192
  0
VERTEX
  5
334
330
2E5
100
AcDbEntity
  8
0
 62
     9
100
AcDbVertex
100
AcDbPolyFaceMeshVertex
 10
6.0
 20
0.3723958432674408
 30
0.0000000000000225
 70
   192
  0
VERTEX
  5
335
330
2E5
100
AcDbEntity
  8
0
 62
     9
100
AcDbVertex
100
AcDbPolyFaceMeshVertex
 10
6.0
 20
0.372484564781189
 30
0.0006740079261363
 70
   192
  0
VERTEX
  5
336
330
2E5
100
AcDbEntity
  8
0
 62
     9
100
AcDbVertex
100
AcDbPolyFaceMeshVertex
 10
6.0
 20
0.3727447390556335
 30
0.0013020833721384
 70
   192
  0
VERTEX
  5
337
330
2E5
100
AcDbEntity
  8
0
 62
     9
100
AcDbVertex
100
AcDbPolyFaceMeshVertex
 10
6.0
 20
0.3731585741043091
 30
0.0018414239166304
 70
   192
  0
VERTEX
  5
338
330
2E5
100
AcDbEntity
  8
0
 62
     9
100
AcDbVertex
100
AcDbPolyFaceMeshVertex
 10
6.0
 20
0.3736979067325592
 30
0.0022552744485438
 70
   192
  0
VERTEX
  5
339
330
2E5
100
AcDbEntity
  8
0
 62
     9
100
AcDbVertex
100
AcDbPolyFaceMeshVertex
 10
6.0
 20
0.3743259906768799
 30
0.0025154317263514
 70
   192
  0
VERTEX
  5
33A
330
2E5
100
AcDbEntity
  8
0
 62
     9
100
AcDbVertex
100
AcDbPolyFaceMeshVertex
 10
6.0
 20
0.375
 30
0.0026041667442769
 70
   192
  0
VERTEX
  5
33B
330
2E5
100
AcDbEntity
  8
0
 62
     9
100
AcDbVertex
100
AcDbPolyFaceMeshVertex
 10
0.0000000000000195
 20
0.375
 30
0.0026041667442769
 70
   192
  0
VERTEX
  5
33C
330
2E5
100
AcDbEntity
  8
0
 62
     9
100
AcDbVertex
100
AcDbPolyFaceMeshVertex
 10
0.0000000000000195
 20
0.3743259906768799
 30
0.0025154317263514
 70
   192
  0
VERTEX
  5
33D
330
2E5
100
AcDbEntity
  8
0
 62
     9
100
AcDbVertex
100
AcDbPolyFaceMeshVertex
 10
0.0000000000000195
 20
0.3736979067325592
 30
0.0022552744485438
 70
   192
  0
VERTEX
  5
33E
330
2E5
100
AcDbEntity
  8
0
 62
     9
100
AcDbVertex
100
AcDbPolyFaceMeshVertex
 10
0.0000000000000195
 20
0.3731585741043091
 30
0.0018414239166304
 70
   192
  0
VERTEX
  5
33F
330
2E5
100
AcDbEntity
  8
0
 62
     9
100
AcDbVertex
100
AcDbPolyFaceMeshVertex
 10
0.0000000000000195
 20
0.3727447390556335
 30
0.0013020833721384
 70
   192
  0
VERTEX
  5
340
330
2E5
100
AcDbEntity
  8
0
 62
     9
100
AcDbVertex
100
AcDbPolyFaceMeshVertex
 10
0.0000000000000195
 20
0.372484564781189
 30
0.0006740079261363
 70
   192
  0
VERTEX
  5
341
330
2E5
100
AcDbEntity
  8
0
 62
     9
100
AcDbVertex
100
AcDbPolyFaceMeshVertex
 10
0.0000000000000195
 20
0.3723958432674408
 30
0.0000000000000225
 70
   192
  0
VERTEX
  5
342
330
2E5
100
AcDbEntity
  8
0
 62
     9
100
AcDbVertex
100
AcDbPolyFaceMeshVertex
 10
0.0000000000000195
 20
0.372484564781189
 30
-0.0006740079261363
 70
   192
  0
VERTEX
  5
343
330
2E5
100
AcDbEntity
  8
0
 62
     9
100
AcDbVertex
100
AcDbPolyFaceMeshVertex
 10
0.0000000000000195
 20
0.3727447390556335
 30
-0.0013020833721384
 70
   192
  0
VERTEX
  5
344
330
2E5
100
AcDbEntity
  8
0
 62
     9
100
AcDbVertex
100
AcDbPolyFaceMeshVertex
 10
0.0000000000000195
 20
0.3731585741043091
 30
-0.0018414239166304
 70
   192
  0
VERTEX
  5
345
330
2E5
100
AcDbEntity
  8
0
 62
     9
100
AcDbVertex
100
AcDbPolyFaceMeshVertex
 10
0.0000000000000195
 20
0.3736979067325592
 30
-0.0022552744485438
 70
   192
  0
VERTEX
  5
346
330
2E5
100
AcDbEntity
  8
0
 62
     9
100
AcDbVertex
100
AcDbPolyFaceMeshVertex
 10
0.0000000000000195
 20
0.3743259906768799
 30
-0.0025154317263514
 70
   192
  0
VERTEX
  5
347
330
2E5
100
AcDbEntity
  8
0
 62
     9
100
AcDbVertex
100
AcDbPolyFaceMeshVertex
 10
0.0000000000000195
 20
0.375
 30
-0.0026041667442769
 70
   192
  0
VERTEX
  5
348
330
2E5
100
AcDbEntity
  8
0
 62
     9
100
AcDbFaceRecord
 10
0.0
 20
0.0
 30
0.0
 70
   128
 71
     1
 72
     2
 73
     3
  0
VERTEX
  5
349
330
2E5
100
AcDbEntity
  8
0
 62
     9
100
AcDbFaceRecord
 10
0.0
 20
0.0
 30
0.0
 70
   128
 71
     1
 72
     3
 73
    21
  0
VERTEX
  5
34A
330
2E5
100
AcDbEntity
  8
0
 62
     9
100
AcDbFaceRecord
 10
0.0
 20
0.0
 30
0.0
 70
   128
 71
    21
 72
     3
 73
    18
  0
VERTEX
  5
34B
330
2E5
100
AcDbEntity
  8
0
 62
     9
100
AcDbFaceRecord
 10
0.0
 20
0.0
 30
0.0
 70
   128
 71
    18
 72
     3
 73
     5
  0
VERTEX
  5
34C
330
2E5
100
AcDbEntity
  8
0
 62
     9
100
AcDbFaceRecord
 10
0.0
 20
0.0
 30
0.0
 70
   128
 71
     5
 72
     3
 73
     4
  0
VERTEX
  5
34D
330
2E5
100
AcDbEntity
  8
0
 62
     9
100
AcDbFaceRecord
 10
0.0
 20
0.0
 30
0.0
 70
   128
 71
    18
 72
     5
 73
    15
  0
VERTEX
  5
34E
330
2E5
100
AcDbEntity
  8
0
 62
     9
100
AcDbFaceRecord
 10
0.0
 20
0.0
 30
0.0
 70
   128
 71
    15
 72
     5
 73
    10
  0
VERTEX
  5
34F
330
2E5
100
AcDbEntity
  8
0
 62
     9
100
AcDbFaceRecord
 10
0.0
 20
0.0
 30
0.0
 70
   128
 71
    10
 72
     5
 73
     7
  0
VERTEX
  5
350
330
2E5
100
AcDbEntity
  8
0
 62
     9
100
AcDbFaceRecord
 10
0.0
 20
0.0
 30
0.0
 70
   128
 71
     7
 72
     5
 73
     6
  0
VERTEX
  5
351
330
2E5
100
AcDbEntity
  8
0
 62
     9
100
AcDbFaceRecord
 10
0.0
 20
0.0
 30
0.0
 70
   128
 71
    10
 72
     7
 73
     9
  0
VERTEX
  5
352
330
2E5
100
AcDbEntity
  8
0
 62
     9
100
AcDbFaceRecord
 10
0.0
 20
0.0
 30
0.0
 70
   128
 71
     9
 72
     7
 73
     8
  0
VERTEX
  5
353
330
2E5
100
AcDbEntity
  8
0
 62
     9
100
AcDbFaceRecord
 10
0.0
 20
0.0
 30
0.0
 70
   128
 71
    15
 72
    10
 73
    11
  0
VERTEX
  5
354
330
2E5
100
AcDbEntity
  8
0
 62
     9
100
AcDbFaceRecord
 10
0.0
 20
0.0
 30
0.0
 70
   128
 71
    15
 72
    11
 73
    13
  0
VERTEX
  5
355
330
2E5
100
AcDbEntity
  8
0
 62
     9
100
AcDbFaceRecord
 10
0.0
 20
0.0
 30
0.0
 70
   128
 71
    13
 72
    11
 73
    12
  0
VERTEX
  5
356
330
2E5
100
AcDbEntity
  8
0
 62
     9
100
AcDbFaceRecord
 10
0.0
 20
0.0
 30
0.0
 70
   128
 71
    15
 72
    13
 73
    14
  0
VERTEX
  5
357
330
2E5
100
AcDbEntity
  8
0
 62
     9
100
AcDbFaceRecord
 10
0.0
 20
0.0
 30
0.0
 70
   128
 71
    18
 72
    15
 73
    16
  0
VERTEX
  5
358
330
2E5
100
AcDbEntity
  8
0
 62
     9
100
AcDbFaceRecord
 10
0.0
 20
0.0
 30
0.0
 70
   128
 71
    18
 72
    16
 73
    17
  0
VERTEX
  5
359
330
2E5
100
AcDbEntity
  8
0
 62
     9
100
AcDbFaceRecord
 10
0.0
 20
0.0
 30
0.0
 70
   128
 71
    21
 72
    18
 73
    20
  0
VERTEX
  5
35A
330
2E5
100
AcDbEntity
  8
0
 62
     9
100
AcDbFaceRecord
 10
0.0
 20
0.0
 30
0.0
 70
   128
 71
    20
 72
    18
 73
    19
  0
VERTEX
  5
35B
330
2E5
100
AcDbEntity
  8
0
 62
     9
100
AcDbFaceRecord
 10
0.0
 20
0.0
 30
0.0
 70
   128
 71
     1
 72
    21
 73
    24
  0
VERTEX
  5
35C
330
2E5
100
AcDbEntity
  8
0
 62
     9
100
AcDbFaceRecord
 10
0.0
 20
0.0
 30
0.0
 70
   128
 71
    24
 72
    21
 73
    23
  0
VERTEX
  5
35D
330
2E5
100
AcDbEntity
  8
0
 62
     9
100
AcDbFaceRecord
 10
0.0
 20
0.0
 30
0.0
 70
   128
 71
    23
 72
    21
 73
    22
  0
VERTEX
  5
35E
330
2E5
100
AcDbEntity
  8
0
 62
     9
100
AcDbFaceRecord
 10
0.0
 20
0.0
 30
0.0
 70
   128
 71
    25
 72
    26
 73
    28
  0
VERTEX
  5
35F
330
2E5
100
AcDbEntity
  8
0
 62
     9
100
AcDbFaceRecord
 10
0.0
 20
0.0
 30
0.0
 70
   128
 71
    28
 72
    26
 73
    27
  0
VERTEX
  5
360
330
2E5
100
AcDbEntity
  8
0
 62
     9
100
AcDbFaceRecord
 10
0.0
 20
0.0
 30
0.0
 70
   128
 71
    25
 72
    28
 73
    29
  0
VERTEX
  5
361
330
2E5
100
AcDbEntity
  8
0
 62
     9
100
AcDbFaceRecord
 10
0.0
 20
0.0
 30
0.0
 70
   128
 71
    25
 72
    29
 73
    30
  0
VERTEX
  5
362
330
2E5
100
AcDbEntity
  8
0
 62
     9
100
AcDbFaceRecord
 10
0.0
 20
0.0
 30
0.0
 70
   128
 71
    25
 72
    30
 73
    31
  0
VERTEX
  5
363
330
2E5
100
AcDbEntity
  8
0
 62
     9
100
AcDbFaceRecord
 10
0.0
 20
0.0
 30
0.0
 70
   128
 71
    25
 72
    31
 73
    34
  0
VERTEX
  5
364
330
2E5
100
AcDbEntity
  8
0
 62
     9
100
AcDbFaceRecord
 10
0.0
 20
0.0
 30
0.0
 70
   128
 71
    34
 72
    31
 73
    32
  0
VERTEX
  5
365
330
2E5
100
AcDbEntity
  8
0
 62
     9
100
AcDbFaceRecord
 10
0.0
 20
0.0
 30
0.0
 70
   128
 71
    34
 72
    32
 73
    33
  0
VERTEX
  5
366
330
2E5
100
AcDbEntity
  8
0
 62
     9
100
AcDbFaceRecord
 10
0.0
 20
0.0
 30
0.0
 70
   128
 71
    25
 72
    34
 73
    39
  0
VERTEX
  5
367
330
2E5
100
AcDbEntity
  8
0
 62
     9
100
AcDbFaceRecord
 10
0.0
 20
0.0
 30
0.0
 70
   128
 71
    39
 72
    34
 73
    37
  0
VERTEX
  5
368
330
2E5
100
AcDbEntity
  8
0
 62
     9
100
AcDbFaceRecord
 10
0.0
 20
0.0
 30
0.0
 70
   128
 71
    37
 72
    34
 73
    36
  0
VERTEX
  5
369
330
2E5
100
AcDbEntity
  8
0
 62
     9
100
AcDbFaceRecord
 10
0.0
 20
0.0
 30
0.0
 70
   128
 71
    36
 72
    34
 73
    35
  0
VERTEX
  5
36A
330
2E5
100
AcDbEntity
  8
0
 62
     9
100
AcDbFaceRecord
 10
0.0
 20
0.0
 30
0.0
 70
   128
 71
    39
 72
    37
 73
    38
  0
VERTEX
  5
36B
330
2E5
100
AcDbEntity
  8
0
 62
     9
100
AcDbFaceRecord
 10
0.0
 20
0.0
 30
0.0
 70
   128
 71
    25
 72
    39
 73
    40
  0
VERTEX
  5
36C
330
2E5
100
AcDbEntity
  8
0
 62
     9
100
AcDbFaceRecord
 10
0.0
 20
0.0
 30
0.0
 70
   128
 71
    25
 72
    40
 73
    43
  0
VERTEX
  5
36D
330
2E5
100
AcDbEntity
  8
0
 62
     9
100
AcDbFaceRecord
 10
0.0
 20
0.0
 30
0.0
 70
   128
 71
    43
 72
    40
 73
    42
  0
VERTEX
  5
36E
330
2E5
100
AcDbEntity
  8
0
 62
     9
100
AcDbFaceRecord
 10
0.0
 20
0.0
 30
0.0
 70
   128
 71
    42
 72
    40
 73
    41
  0
VERTEX
  5
36F
330
2E5
100
AcDbEntity
  8
0
 62
     9
100
AcDbFaceRecord
 10
0.0
 20
0.0
 30
0.0
 70
   128
 71
    25
 72
    43
 73
    46
  0
VERTEX
  5
370
330
2E5
100
AcDbEntity
  8
0
 62
     9
100
AcDbFaceRecord
 10
0.0
 20
0.0
 30
0.0
 70
   128
 71
    46
 72
    43
 73
    44
  0
VERTEX
  5
371
330
2E5
100
AcDbEntity
  8
0
 62
     9
100
AcDbFaceRecord
 10
0.0
 20
0.0
 30
0.0
 70
   128
 71
    46
 72
    44
 73
    45
  0
VERTEX
  5
372
330
2E5
100
AcDbEntity
  8
0
 62
     9
100
AcDbFaceRecord
 10
0.0
 20
0.0
 30
0.0
 70
   128
 71
    25
 72
    46
 73
    48
  0
VERTEX
  5
373
330
2E5
100
AcDbEntity
  8
0
 62
     9
100
AcDbFaceRecord
 10
0.0
 20
0.0
 30
0.0
 70
   128
 71
    48
 72
    46
 73
    47
  0
VERTEX
  5
374
330
2E5
100
AcDbEntity
  8
0
 62
     9
100
AcDbFaceRecord
 10
0.0
 20
0.0
 30
0.0
 70
   128
 71
    49
 72
    50
 73
    71
  0
VERTEX
  5
375
330
2E5
100
AcDbEntity
  8
0
 62
     9
100
AcDbFaceRecord
 10
0.0
 20
0.0
 30
0.0
 70
   128
 71
    71
 72
    50
 73
    70
  0
VERTEX
  5
376
330
2E5
100
AcDbEntity
  8
0
 62
     9
100
AcDbFaceRecord
 10
0.0
 20
0.0
 30
0.0
 70
   128
 71
    70
 72
    50
 73
    51
  0
VERTEX
  5
377
330
2E5
100
AcDbEntity
  8
0
 62
     9
100
AcDbFaceRecord
 10
0.0
 20
0.0
 30
0.0
 70
   128
 71
    70
 72
    51
 73
    69
  0
VERTEX
  5
378
330
2E5
100
AcDbEntity
  8
0
 62
     9
100
AcDbFaceRecord
 10
0.0
 20
0.0
 30
0.0
 70
   128
 71
    69
 72
    51
 73
    52
  0
VERTEX
  5
379
330
2E5
100
AcDbEntity
  8
0
 62
     9
100
AcDbFaceRecord
 10
0.0
 20
0.0
 30
0.0
 70
   128
 71
    69
 72
    52
 73
    68
  0
VERTEX
  5
37A
330
2E5
100
AcDbEntity
  8
0
 62
     9
100
AcDbFaceRecord
 10
0.0
 20
0.0
 30
0.0
 70
   128
 71
    68
 72
    52
 73
    53
  0
VERTEX
  5
37B
330
2E5
100
AcDbEntity
  8
0
 62
     9
100
AcDbFaceRecord
 10
0.0
 20
0.0
 30
0.0
 70
   128
 71
    68
 72
    53
 73
    67
  0
VERTEX
  5
37C
330
2E5
100
AcDbEntity
  8
0
 62
     9
100
AcDbFaceRecord
 10
0.0
 20
0.0
 30
0.0
 70
   128
 71
    67
 72
    53
 73
    54
  0
VERTEX
  5
37D
330
2E5
100
AcDbEntity
  8
0
 62
     9
100
AcDbFaceRecord
 10
0.0
 20
0.0
 30
0.0
 70
   128
 71
    67
 72
    54
 73
    66
  0
VERTEX
  5
37E
330
2E5
100
AcDbEntity
  8
0
 62
     9
100
AcDbFaceRecord
 10
0.0
 20
0.0
 30
0.0
 70
   128
 71
    66
 72
    54
 73
    55
  0
VERTEX
  5
37F
330
2E5
100
AcDbEntity
  8
0
 62
     9
100
AcDbFaceRecord
 10
0.0
 20
0.0
 30
0.0
 70
   128
 71
    66
 72
    55
 73
    65
  0
VERTEX
  5
380
330
2E5
100
AcDbEntity
  8
0
 62
     9
100
AcDbFaceRecord
 10
0.0
 20
0.0
 30
0.0
 70
   128
 71
    65
 72
    55
 73
    56
  0
VERTEX
  5
381
330
2E5
100
AcDbEntity
  8
0
 62
     9
100
AcDbFaceRecord
 10
0.0
 20
0.0
 30
0.0
 70
   128
 71
    65
 72
    56
 73
    64
  0
VERTEX
  5
382
330
2E5
100
AcDbEntity
  8
0
 62
     9
100
AcDbFaceRecord
 10
0.0
 20
0.0
 30
0.0
 70
   128
 71
    64
 72
    56
 73
    57
  0
VERTEX
  5
383
330
2E5
100
AcDbEntity
  8
0
 62
     9
100
AcDbFaceRecord
 10
0.0
 20
0.0
 30
0.0
 70
   128
 71
    64
 72
    57
 73
    63
  0
VERTEX
  5
384
330
2E5
100
AcDbEntity
  8
0
 62
     9
100
AcDbFaceRecord
 10
0.0
 20
0.0
 30
0.0
 70
   128
 71
    63
 72
    57
 73
    58
  0
VERTEX
  5
385
330
2E5
100
AcDbEntity
  8
0
 62
     9
100
AcDbFaceRecord
 10
0.0
 20
0.0
 30
0.0
 70
   128
 71
    63
 72
    58
 73
    62
  0
VERTEX
  5
386
330
2E5
100
AcDbEntity
  8
0
 62
     9
100
AcDbFaceRecord
 10
0.0
 20
0.0
 30
0.0
 70
   128
 71
    62
 72
    58
 73
    59
  0
VERTEX
  5
387
330
2E5
100
AcDbEntity
  8
0
 62
     9
100
AcDbFaceRecord
 10
0.0
 20
0.0
 30
0.0
 70
   128
 71
    62
 72
    59
 73
    61
  0
VERTEX
  5
388
330
2E5
100
AcDbEntity
  8
0
 62
     9
100
AcDbFaceRecord
 10
0.0
 20
0.0
 30
0.0
 70
   128
 71
    61
 72
    59
 73
    60
  0
VERTEX
  5
389
330
2E5
100
AcDbEntity
  8
0
 62
     9
100
AcDbFaceRecord
 10
0.0
 20
0.0
 30
0.0
 70
   128
 71
    49
 72
    71
 73
    72
  0
VERTEX
  5
38A
330
2E5
100
AcDbEntity
  8
0
 62
     9
100
AcDbFaceRecord
 10
0.0
 20
0.0
 30
0.0
 70
   128
 71
    49
 72
    72
 73
    98
  0
VERTEX
  5
38B
330
2E5
100
AcDbEntity
  8
0
 62
     9
100
AcDbFaceRecord
 10
0.0
 20
0.0
 30
0.0
 70
   128
 71
    98
 72
    72
 73
    73
  0
VERTEX
  5
38C
330
2E5
100
AcDbEntity
  8
0
 62
     9
100
AcDbFaceRecord
 10
0.0
 20
0.0
 30
0.0
 70
   128
 71
    98
 72
    73
 73
    97
  0
VERTEX
  5
38D
330
2E5
100
AcDbEntity
  8
0
 62
     9
100
AcDbFaceRecord
 10
0.0
 20
0.0
 30
0.0
 70
   128
 71
    97
 72
    73
 73
    74
  0
VERTEX
  5
38E
330
2E5
100
AcDbEntity
  8
0
 62
     9
100
AcDbFaceRecord
 10
0.0
 20
0.0
 30
0.0
 70
   128
 71
    97
 72
    74
 73
    96
  0
VERTEX
  5
38F
330
2E5
100
AcDbEntity
  8
0
 62
     9
100
AcDbFaceRecord
 10
0.0
 20
0.0
 30
0.0
 70
   128
 71
    96
 72
    74
 73
    75
  0
VERTEX
  5
390
330
2E5
100
AcDbEntity
  8
0
 62
     9
100
AcDbFaceRecord
 10
0.0
 20
0.0
 30
0.0
 70
   128
 71
    96
 72
    75
 73
    95
  0
VERTEX
  5
391
330
2E5
100
AcDbEntity
  8
0
 62
     9
100
AcDbFaceRecord
 10
0.0
 20
0.0
 30
0.0
 70
   128
 71
    95
 72
    75
 73
    76
  0
VERTEX
  5
392
330
2E5
100
AcDbEntity
  8
0
 62
     9
100
AcDbFaceRecord
 10
0.0
 20
0.0
 30
0.0
 70
   128
 71
    95
 72
    76
 73
    94
  0
VERTEX
  5
393
330
2E5
100
AcDbEntity
  8
0
 62
     9
100
AcDbFaceRecord
 10
0.0
 20
0.0
 30
0.0
 70
   128
 71
    94
 72
    76
 73
    77
  0
VERTEX
  5
394
330
2E5
100
AcDbEntity
  8
0
 62
     9
100
AcDbFaceRecord
 10
0.0
 20
0.0
 30
0.0
 70
   128
 71
    94
 72
    77
 73
    93
  0
VERTEX
  5
395
330
2E5
100
AcDbEntity
  8
0
 62
     9
100
AcDbFaceRecord
 10
0.0
 20
0.0
 30
0.0
 70
   128
 71
    93
 72
    77
 73
    78
  0
VERTEX
  5
396
330
2E5
100
AcDbEntity
  8
0
 62
     9
100
AcDbFaceRecord
 10
0.0
 20
0.0
 30
0.0
 70
   128
 71
    93
 72
    78
 73
    92
  0
VERTEX
  5
397
330
2E5
100
AcDbEntity
  8
0
 62
     9
100
AcDbFaceRecord
 10
0.0
 20
0.0
 30
0.0
 70
   128
 71
    92
 72
    78
 73
    79
  0
VERTEX
  5
398
330
2E5
100
AcDbEntity
  8
0
 62
     9
100
AcDbFaceRecord
 10
0.0
 20
0.0
 30
0.0
 70
   128
 71
    92
 72
    79
 73
    91
  0
VERTEX
  5
399
330
2E5
100
AcDbEntity
  8
0
 62
     9
100
AcDbFaceRecord
 10
0.0
 20
0.0
 30
0.0
 70
   128
 71
    91
 72
    79
 73
    80
  0
VERTEX
  5
39A
330
2E5
100
AcDbEntity
  8
0
 62
     9
100
AcDbFaceRecord
 10
0.0
 20
0.0
 30
0.0
 70
   128
 71
    91
 72
    80
 73
    90
  0
VERTEX
  5
39B
330
2E5
100
AcDbEntity
  8
0
 62
     9
100
AcDbFaceRecord
 10
0.0
 20
0.0
 30
0.0
 70
   128
 71
    90
 72
    80
 73
    81
  0
VERTEX
  5
39C
330
2E5
100
AcDbEntity
  8
0
 62
     9
100
AcDbFaceRecord
 10
0.0
 20
0.0
 30
0.0
 70
   128
 71
    90
 72
    81
 73
    89
  0
VERTEX
  5
39D
330
2E5
100
AcDbEntity
  8
0
 62
     9
100
AcDbFaceRecord
 10
0.0
 20
0.0
 30
0.0
 70
   128
 71
    89
 72
    81
 73
    82
  0
VERTEX
  5
39E
330
2E5
100
AcDbEntity
  8
0
 62
     9
100
AcDbFaceRecord
 10
0.0
 20
0.0
 30
0.0
 70
   128
 71
    89
 72
    82
 73
    83
  0
VERTEX
  5
39F
330
2E5
100
AcDbEntity
  8
0
 62
     9
100
AcDbFaceRecord
 10
0.0
 20
0.0
 30
0.0
 70
   128
 71
    89
 72
    83
 73
    88
  0
VERTEX
  5
3A0
330
2E5
100
AcDbEntity
  8
0
 62
     9
100
AcDbFaceRecord
 10
0.0
 20
0.0
 30
0.0
 70
   128
 71
    88
 72
    83
 73
    84
  0
VERTEX
  5
3A1
330
2E5
100
AcDbEntity
  8
0
 62
     9
100
AcDbFaceRecord
 10
0.0
 20
0.0
 30
0.0
 70
   128
 71
    88
 72
    84
 73
    87
  0
VERTEX
  5
3A2
330
2E5
100
AcDbEntity
  8
0
 62
     9
100
AcDbFaceRecord
 10
0.0
 20
0.0
 30
0.0
 70
   128
 71
    87
 72
    84
 73
    85
  0
VERTEX
  5
3A3
330
2E5
100
AcDbEntity
  8
0
 62
     9
100
AcDbFaceRecord
 10
0.0
 20
0.0
 30
0.0
 70
   128
 71
    87
 72
    85
 73
    86
  0
SEQEND
  5
3A4
330
2E5
100
AcDbEntity
  8
0
 62
     9
  0
INSERT
  5
3A6
330
2E1
100
AcDbEntity
  8
0
100
AcDbBlockReference
  2
*U11
 10
0.0
 20
0.0
 30
0.0
  0
ENDBLK
  5
2E4
330
2E1
100
AcDbEntity
  8
0
100
AcDbBlockEnd
  0
BLOCK
  5
3A7
330
3A5
100
AcDbEntity
  8
0
100
AcDbBlockBegin
  2
*U11
 70
     1
 10
0.0
 20
0.0
 30
0.0
  3
*U11
  1

  0
INSERT
  5
3A9
330
3A5
100
AcDbEntity
  8
0
100
AcDbBlockReference
  2
_STYLE_LIBRARY__DWFW3D_PUB
 10
0.0
 20
0.0
 30
0.0
  0
ARC
  5
3AA
330
3A5
100
AcDbEntity
  8
0
 62
    18
100
AcDbCircle
 10
-0.3749999899882631
 20
0.0
 30
-6.0
 40
0.0026041667442961
210
-1.0
220
0.0
230
0.0
100
AcDbArc
 50
90.00022027401798
 51
269.999779725982
  0
ARC
  5
3AB
330
3A5
100
AcDbEntity
  8
0
 62
    18
100
AcDbCircle
 10
-0.3750000100117369
 20
0.0
 30
-6.0
 40
0.0026041667442961
210
-1.0
220
0.0
230
0.0
100
AcDbArc
 50
270.000220274018
 51
89.99977972598202
  0
ARC
  5
3AC
330
3A5
100
AcDbEntity
  8
0
 62
    18
100
AcDbCircle
 10
0.3750000100117369
 20
0.0
 30
0.0000000000000183
 40
0.0026041667442961
210
1.0
220
-3.233103211661755E-15
230
0.0
100
AcDbArc
 50
90.00022027401798
 51
269.999779725982
  0
ARC
  5
3AD
330
3A5
100
AcDbEntity
  8
0
 62
    18
100
AcDbCircle
 10
0.3749999899882631
 20
0.0
 30
0.0000000000000183
 40
0.0026041667442961
210
1.0
220
-3.233103211661755E-15
230
0.0
100
AcDbArc
 50
270.000220274018
 51
89.99977972598202
  0
POLYLINE
  5
3AE
330
3A5
100
AcDbEntity
  8
0
 62
    18
100
AcDb3dPolyline
 66
     1
 10
0.0
 20
0.0
 30
0.0
 70
     8
  0
VERTEX
  5
3AF
330
3AE
100
AcDbEntity
  8
0
 62
    18
100
AcDbVertex
100
AcDb3dPolylineVertex
 10
6.0
 20
0.375
 30
-0.0026041667442769
 70
    32
  0
VERTEX
  5
3B0
330
3AE
100
AcDbEntity
  8
0
 62
    18
100
AcDbVertex
100
AcDb3dPolylineVertex
 10
0.0000000000000195
 20
0.375
 30
-0.0026041667442769
 70
    32
  0
SEQEND
  5
3B1
330
3AE
100
AcDbEntity
  8
0
 62
    18
  0
POLYLINE
  5
3B2
330
3A5
100
AcDbEntity
  8
0
 62
    18
100
AcDb3dPolyline
 66
     1
 10
0.0
 20
0.0
 30
0.0
 70
     8
  0
VERTEX
  5
3B3
330
3B2
100
AcDbEntity
  8
0
 62
    18
100
AcDbVertex
100
AcDb3dPolylineVertex
 10
0.0000000000000195
 20
0.375
 30
0.0026041667442769
 70
    32
  0
VERTEX
  5
3B4
330
3B2
100
AcDbEntity
  8
0
 62
    18
100
AcDbVertex
100
AcDb3dPolylineVertex
 10
6.0
 20
0.375
 30
0.0026041667442769
 70
    32
  0
SEQEND
  5
3B5
330
3B2
100
AcDbEntity
  8
0
 62
    18
  0
ENDBLK
  5
3A8
330
3A5
100
AcDbEntity
  8
0
100
AcDbBlockEnd
  0
BLOCK
  5
3B8
330
3B6
100
AcDbEntity
  8
0
100
AcDbBlockBegin
  2
98
 70
     0
 10
0.0
 20
0.0
 30
0.0
  3
98
  1

  0
INSERT
  5
3BB
330
3B6
100
AcDbEntity
  8
0
100
AcDbBlockReference
  2
99
 10
0.0
 20
0.0
 30
0.0
  0
ENDBLK
  5
3B9
330
3B6
100
AcDbEntity
  8
0
100
AcDbBlockEnd
  0
BLOCK
  5
3BC
330
3BA
100
AcDbEntity
  8
0
100
AcDbBlockBegin
  2
99
 70
     0
 10
0.0
 20
0.0
 30
0.0
  3
99
  1

  0
INSERT
  5
3BF
330
3BA
100
AcDbEntity
  8
0
100
AcDbBlockReference
  2
100
 10
0.0
 20
0.0
 30
0.0
  0
ENDBLK
  5
3BD
330
3BA
100
AcDbEntity
  8
0
100
AcDbBlockEnd
  0
BLOCK
  5
3C0
330
3BE
100
AcDbEntity
  8
0
100
AcDbBlockBegin
  2
100
 70
     0
 10
0.0
 20
0.0
 30
0.0
  3
100
  1

  0
INSERT
  5
3C3
330
3BE
100
AcDbEntity
  8
0
100
AcDbBlockReference
  2
101
 10
0.0
 20
0.0
 30
0.0
  0
INSERT
  5
3C8
330
3BE
100
AcDbEntity
  8
0
100
AcDbBlockReference
  2
102
 10
0.0
 20
0.0
 30
0.0
  0
INSERT
  5
3CD
330
3BE
100
AcDbEntity
  8
0
100
AcDbBlockReference
  2
103
 10
0.0
 20
0.0
 30
0.0
  0
INSERT
  5
3D2
330
3BE
100
AcDbEntity
  8
0
100
AcDbBlockReference
  2
104
 10
0.0
 20
0.0
 30
0.0
  0
INSERT
  5
3D7
330
3BE
100
AcDbEntity
  8
0
100
AcDbBlockReference
  2
105
 10
0.0
 20
0.0
 30
0.0
  0
ENDBLK
  5
3C1
330
3BE
100
AcDbEntity
  8
0
100
AcDbBlockEnd
  0
BLOCK
  5
3C4
330
3C2
100
AcDbEntity
  8
0
100
AcDbBlockBegin
  2
101
 70
     0
 10
0.0
 20
0.0
 30
0.0
  3
101
  1

  0
INSERT
  5
3C6
330
3C2
100
AcDbEntity
  8
0
100
AcDbBlockReference
  2
_INCLUDE_LIBRARY_88
 10
-0.0000000000000061
 20
0.0000000000001101
 30
5.0
 50
-90.0
210
1.0
220
0.0
230
1.776356839400250E-15
  0
ENDBLK
  5
3C5
330
3C2
100
AcDbEntity
  8
0
100
AcDbBlockEnd
  0
BLOCK
  5
3C9
330
3C7
100
AcDbEntity
  8
0
100
AcDbBlockBegin
  2
102
 70
     0
 10
0.0
 20
0.0
 30
0.0
  3
102
  1

  0
INSERT
  5
3CB
330
3C7
100
AcDbEntity
  8
0
100
AcDbBlockReference
  2
_INCLUDE_LIBRARY_88
 10
-0.0000000000000061
 20
0.0000000000001014
 30
10.0
 50
-90.0
210
1.0
220
0.0
230
1.776356839400250E-15
  0
ENDBLK
  5
3CA
330
3C7
100
AcDbEntity
  8
0
100
AcDbBlockEnd
  0
BLOCK
  5
3CE
330
3CC
100
AcDbEntity
  8
0
100
AcDbBlockBegin
  2
103
 70
     0
 10
0.0
 20
0.0
 30
0.0
  3
103
  1

  0
INSERT
  5
3D0
330
3CC
100
AcDbEntity
  8
0
100
AcDbBlockReference
  2
_INCLUDE_LIBRARY_88
 10
-0.0000000000000061
 20
0.0000000000001028
 30
0.000000000000034
 50
-90.0
210
1.0
220
0.0
230
1.776356839400250E-15
  0
ENDBLK
  5
3CF
330
3CC
100
AcDbEntity
  8
0
100
AcDbBlockEnd
  0
BLOCK
  5
3D3
330
3D1
100
AcDbEntity
  8
0
100
AcDbBlockBegin
  2
104
 70
     0
 10
0.0
 20
0.0
 30
0.0
  3
104
  1

  0
INSERT
  5
3D5
330
3D1
100
AcDbEntity
  8
0
100
AcDbBlockReference
  2
_INCLUDE_LIBRARY_88
 10
-0.0000000000000061
 20
0.0000000000001085
 30
6.0
 50
-90.0
210
1.0
220
0.0
230
1.776356839400250E-15
  0
ENDBLK
  5
3D4
330
3D1
100
AcDbEntity
  8
0
100
AcDbBlockEnd
  0
BLOCK
  5
3D8
330
3D6
100
AcDbEntity
  8
0
100
AcDbBlockBegin
  2
105
 70
     0
 10
0.0
 20
0.0
 30
0.0
  3
105
  1

  0
INSERT
  5
3DA
330
3D6
100
AcDbEntity
  8
0
100
AcDbBlockReference
  2
_INCLUDE_LIBRARY_88
 10
-0.0000000000000061
 20
0.0000000000001101
 30
5.0
 50
-90.0
210
1.0
220
0.0
230
1.776356839400250E-15
  0
ENDBLK
  5
3D9
330
3D6
100
AcDbEntity
  8
0
100
AcDbBlockEnd
  0
ENDSEC
  0
SECTION
  2
ENTITIES
  0
INSERT
  5
2CE
330
1F
100
AcDbEntity
  8
0
100
AcDbBlockReference
  2
*U5
 10
0.0
 20
0.0
 30
0.0
  0
ENDSEC
  0
SECTION
  2
OBJECTS
  0
DICTIONARY
  5
C
330
0
100
AcDbDictionary
  3
ACAD_GROUP
350
D
  3
ACAD_LAYOUT
350
1A
  3
ACAD_MATERIAL
350
3B
  3
ACAD_MLEADERSTYLE
350
3FD
  3
ACAD_MLINESTYLE
350
17
  3
ACAD_PLOTSETTINGS
350
19
  3
ACAD_SCALELIST
350
22B
  3
ACAD_VISUALSTYLE
350
2A
  3
ACDBHEADERROUNDTRIPXREC
350
3DB
  3
ACDBVARIABLEDICTIONARY
350
3FB
  0
DICTIONARY
  5
D
102
{ACAD_REACTORS
330
C
102
}
330
C
100
AcDbDictionary
  0
DICTIONARY
  5
1A
102
{ACAD_REACTORS
330
C
102
}
330
C
100
AcDbDictionary
  0
DICTIONARY
  5
3B
102
{ACAD_REACTORS
330
C
102
}
330
C
100
AcDbDictionary
  3
BYBLOCK
350
3D
  3
BYLAYER
350
3C
  3
GLOBAL
350
3E
  0
DICTIONARY
  5
3FD
102
{ACAD_REACTORS
330
C
102
}
330
C
100
AcDbDictionary
  0
DICTIONARY
  5
17
102
{ACAD_REACTORS
330
C
102
}
330
C
100
AcDbDictionary
  3
STANDARD
350
18
  0
DICTIONARY
  5
19
102
{ACAD_REACTORS
330
C
102
}
330
C
100
AcDbDictionary
  0
DICTIONARY
  5
22B
102
{ACAD_REACTORS
330
C
102
}
330
C
100
AcDbDictionary
  3
A0
350
22C
  3
A1
350
22D
  3
A2
350
22E
  3
A3
350
22F
  3
A4
350
230
  3
A5
350
231
  3
A6
350
232
  3
A7
350
233
  3
A8
350
234
  3
A9
350
235
  3
B0
350
236
  3
B1
350
237
  3
B2
350
238
  3
B3
350
239
  3
B4
350
23A
  3
B5
350
23B
  3
B6
350
23C
  3
B7
350
23D
  3
B8
350
23E
  3
B9
350
23F
  3
C0
350
240
  3
C1
350
241
  3
C2
350
242
  3
C3
350
243
  3
C4
350
244
  3
C5
350
245
  3
C6
350
246
  3
C7
350
247
  3
C8
350
248
  3
C9
350
249
  3
D0
350
24A
  3
D1
350
24B
  3
D2
350
24C
  0
DICTIONARY
  5
2A
102
{ACAD_REACTORS
330
C
102
}
330
C
100
AcDbDictionary
  3
2DWIREFRAME
350
2F
  3
3D_HIDDEN
350
31
  3
3DWIREFRAME
350
30
  3
BASIC
350
32
  3
BRIGHTEN
350
36
  3
COLORCHANGE
350
3A
  3
CONCEPTUAL
350
34
  3
DIM
350
35
  3
FACEPATTERN
350
39
  3
FLAT
350
2B
  3
FLATWITHEDGES
350
2C
  3
GOURAUD
350
2D
  3
GOURAUDWITHEDGES
350
2E
  3
LINEPATTERN
350
38
  3
REALISTIC
350
33
  3
THICKEN
350
37
  0
DICTIONARY
  5
3DB
102
{ACAD_REACTORS
330
C
102
}
330
C
100
AcDbDictionary
  3
CEPSNTYPE
350
3E4
  3
DIMSTYLEDATA
350
3FA
  3
FINGERPRINTGUID
350
3E5
  3
HYPERLINKBASE
350
3DE
  3
INSUNITS
350
3E3
  3
LAYOUTDICT
350
3E0
  3
LWETCUNION
350
3E2
  3
PLOTSETDICT
350
3E1
  3
PSVPSCALE
350
3E7
  3
PUCSBASE
350
3EA
  3
PUCSORGBACK
350
3F0
  3
PUCSORGBOTTOM
350
3EC
  3
PUCSORGFRONT
350
3EF
  3
PUCSORGLEFT
350
3ED
  3
PUCSORGRIGHT
350
3EE
  3
PUCSORGTOP
350
3EB
  3
PUCSORTHOREF
350
3E8
  3
PUCSORTHOVIEW
350
3E9
  3
STYLESHEET
350
3DF
  3
TSTACKALIGN
350
3DC
  3
TSTACKSIZE
350
3DD
  3
UCSBASE
350
3F3
  3
UCSORGBACK
350
3F9
  3
UCSORGBOTTOM
350
3F5
  3
UCSORGFRONT
350
3F8
  3
UCSORGLEFT
350
3F6
  3
UCSORGRIGHT
350
3F7
  3
UCSORGTOP
350
3F4
  3
UCSORTHOREF
350
3F1
  3
UCSORTHOVIEW
350
3F2
  3
VERSIONGUID
350
3E6
  0
DICTIONARY
  5
3FB
102
{ACAD_REACTORS
330
C
102
}
330
C
100
AcDbDictionary
  3
CANNOSCALE
350
3FE
  3
DIMASSOC
350
3FF
  3
HIDETEXT
350
400
  0
MATERIAL
  5
3D
102
{ACAD_REACTORS
330
3B
102
}
102
{ACAD_XDICTIONARY
360
403
102
}
330
3B
100
AcDbMaterial
  1
ByBlock
  0
MATERIAL
  5
3C
102
{ACAD_REACTORS
330
3B
102
}
102
{ACAD_XDICTIONARY
360
401
102
}
330
3B
100
AcDbMaterial
  1
ByLayer
  0
MATERIAL
  5
3E
102
{ACAD_REACTORS
330
3B
102
}
102
{ACAD_XDICTIONARY
360
405
102
}
330
3B
100
AcDbMaterial
  1
Global
  0
MLINESTYLE
  5
18
102
{ACAD_REACTORS
330
17
102
}
330
17
100
AcDbMlineStyle
  2
Standard
 70
     0
  3

 62
   256
 51
90.0
 52
90.0
 71
     2
 49
0.5
 62
   256
  6
BYLAYER
 49
-0.5
 62
   256
  6
BYLAYER
  0
ACAD_PROXY_OBJECT
  5
22C
102
{ACAD_REACTORS
330
22B
102
}
330
22B
100
AcDbProxyObject
 90
      499
 91
      503
 93
       41
310
903313A31580
  0
ACAD_PROXY_OBJECT
  5
22D
102
{ACAD_REACTORS
330
22B
102
}
330
22B
100
AcDbProxyObject
 90
      499
 91
      503
 93
      105
310
903313A324000000000000004000
  0
ACAD_PROXY_OBJECT
  5
22E
102
{ACAD_REACTORS
330
22B
102
}
330
22B
100
AcDbProxyObject
 90
      499
 91
      503
 93
      105
310
903313A344000000000000104000
  0
ACAD_PROXY_OBJECT
  5
22F
102
{ACAD_REACTORS
330
22B
102
}
330
22B
100
AcDbProxyObject
 90
      499
 91
      503
 93
      105
310
903313A354000000000000144000
  0
ACAD_PROXY_OBJECT
  5
230
102
{ACAD_REACTORS
330
22B
102
}
330
22B
100
AcDbProxyObject
 90
      499
 91
      503
 93
      105
310
903313A384000000000000204000
  0
ACAD_PROXY_OBJECT
  5
231
102
{ACAD_REACTORS
330
22B
102
}
330
22B
100
AcDbProxyObject
 90
      499
 91
      503
 93
      113
310
904313A31304000000000000244000
  0
ACAD_PROXY_OBJECT
  5
232
102
{ACAD_REACTORS
330
22B
102
}
330
22B
100
AcDbProxyObject
 90
      499
 91
      503
 93
      113
310
904313A31364000000000000304000
  0
ACAD_PROXY_OBJECT
  5
233
102
{ACAD_REACTORS
330
22B
102
}
330
22B
100
AcDbProxyObject
 90
      499
 91
      503
 93
      113
310
904313A32304000000000000344000
  0
ACAD_PROXY_OBJECT
  5
234
102
{ACAD_REACTORS
330
22B
102
}
330
22B
100
AcDbProxyObject
 90
      499
 91
      503
 93
      113
310
904313A333040000000000003E4000
  0
ACAD_PROXY_OBJECT
  5
235
102
{ACAD_REACTORS
330
22B
102
}
330
22B
100
AcDbProxyObject
 90
      499
 91
      503
 93
      113
310
904313A34304000000000000444000
  0
ACAD_PROXY_OBJECT
  5
236
102
{ACAD_REACTORS
330
22B
102
}
330
22B
100
AcDbProxyObject
 90
      499
 91
      503
 93
      113
310
904313A35304000000000000494000
  0
ACAD_PROXY_OBJECT
  5
237
102
{ACAD_REACTORS
330
22B
102
}
330
22B
100
AcDbProxyObject
 90
      499
 91
      503
 93
      121
310
905313A3130304000000000000594000
  0
ACAD_PROXY_OBJECT
  5
238
102
{ACAD_REACTORS
330
22B
102
}
330
22B
100
AcDbProxyObject
 90
      499
 91
      503
 93
      105
310
903323A310000000000000010100
  0
ACAD_PROXY_OBJECT
  5
239
102
{ACAD_REACTORS
330
22B
102
}
330
22B
100
AcDbProxyObject
 90
      499
 91
      503
 93
      105
310
903343A310000000000000410100
  0
ACAD_PROXY_OBJECT
  5
23A
102
{ACAD_REACTORS
330
22B
102
}
330
22B
100
AcDbProxyObject
 90
      499
 91
      503
 93
      105
310
903383A310000000000000810100
  0
ACAD_PROXY_OBJECT
  5
23B
102
{ACAD_REACTORS
330
22B
102
}
330
22B
100
AcDbProxyObject
 90
      499
 91
      503
 93
      113
310
90431303A310000000000000910100
  0
ACAD_PROXY_OBJECT
  5
23C
102
{ACAD_REACTORS
330
22B
102
}
330
22B
100
AcDbProxyObject
 90
      499
 91
      503
 93
      121
310
9053130303A310000000000001650100
  0
ACAD_PROXY_OBJECT
  5
23D
102
{ACAD_REACTORS
330
22B
102
}
330
22B
100
AcDbProxyObject
 90
      499
 91
      503
 93
      257
310
90E312F31323822203D2031272D3022000000000000200FC000000000000284000
  0
ACAD_PROXY_OBJECT
  5
23E
102
{ACAD_REACTORS
330
22B
102
}
330
22B
100
AcDbProxyObject
 90
      499
 91
      503
 93
      249
310
90D312F363422203D2031272D3022000000000000240FC000000000000284000
  0
ACAD_PROXY_OBJECT
  5
23F
102
{ACAD_REACTORS
330
22B
102
}
330
22B
100
AcDbProxyObject
 90
      499
 91
      503
 93
      249
310
90D312F333222203D2031272D3022000000000000280FC000000000000284000
  0
ACAD_PROXY_OBJECT
  5
240
102
{ACAD_REACTORS
330
22B
102
}
330
22B
100
AcDbProxyObject
 90
      499
 91
      503
 93
      249
310
90D312F313622203D2031272D30220000000000002C0FC000000000000284000
  0
ACAD_PROXY_OBJECT
  5
241
102
{ACAD_REACTORS
330
22B
102
}
330
22B
100
AcDbProxyObject
 90
      499
 91
      503
 93
      249
310
90D332F333222203D2031272D30220000000000002E0FC000000000000284000
  0
ACAD_PROXY_OBJECT
  5
242
102
{ACAD_REACTORS
330
22B
102
}
330
22B
100
AcDbProxyObject
 90
      499
 91
      503
 93
      241
310
90C312F3822203D2031272D3022000000000000300FC000000000000284000
  0
ACAD_PROXY_OBJECT
  5
243
102
{ACAD_REACTORS
330
22B
102
}
330
22B
100
AcDbProxyObject
 90
      499
 91
      503
 93
      249
310
90D332F313622203D2031272D3022000000000000320FC000000000000284000
  0
ACAD_PROXY_OBJECT
  5
244
102
{ACAD_REACTORS
330
22B
102
}
330
22B
100
AcDbProxyObject
 90
      499
 91
      503
 93
      241
310
90C312F3422203D2031272D3022000000000000340FC000000000000284000
  0
ACAD_PROXY_OBJECT
  5
245
102
{ACAD_REACTORS
330
22B
102
}
330
22B
100
AcDbProxyObject
 90
      499
 91
      503
 93
      241
310
90C332F3822203D2031272D3022000000000000360FC000000000000284000
  0
ACAD_PROXY_OBJECT
  5
246
102
{ACAD_REACTORS
330
22B
102
}
330
22B
100
AcDbProxyObject
 90
      499
 91
      503
 93
      241
310
90C312F3222203D2031272D3022000000000000380FC000000000000284000
  0
ACAD_PROXY_OBJECT
  5
247
102
{ACAD_REACTORS
330
22B
102
}
330
22B
100
AcDbProxyObject
 90
      499
 91
      503
 93
      241
310
90C332F3422203D2031272D30220000000000003A0FC000000000000284000
  0
ACAD_PROXY_OBJECT
  5
248
102
{ACAD_REACTORS
330
22B
102
}
330
22B
100
AcDbProxyObject
 90
      499
 91
      503
 93
      161
310
90A3122203D2031272D30224000000000000284000
  0
ACAD_PROXY_OBJECT
  5
249
102
{ACAD_REACTORS
330
22B
102
}
330
22B
100
AcDbProxyObject
 90
      499
 91
      503
 93
      257
310
90E312D312F3222203D2031272D30220000000000003E0FC000000000000284000
  0
ACAD_PROXY_OBJECT
  5
24A
102
{ACAD_REACTORS
330
22B
102
}
330
22B
100
AcDbProxyObject
 90
      499
 91
      503
 93
      225
310
90A3322203D2031272D302200000000000002100000000000000284000
  0
ACAD_PROXY_OBJECT
  5
24B
102
{ACAD_REACTORS
330
22B
102
}
330
22B
100
AcDbProxyObject
 90
      499
 91
      503
 93
      225
310
90A3622203D2031272D302200000000000006100000000000000284000
  0
ACAD_PROXY_OBJECT
  5
24C
102
{ACAD_REACTORS
330
22B
102
}
330
22B
100
AcDbProxyObject
 90
      499
 91
      503
 93
      249
310
90D31272D3022203D2031272D30220000000000000A100000000000000284000
  0
ACAD_PROXY_OBJECT
  5
2F
102
{ACAD_REACTORS
330
2A
102
}
330
2A
100
AcDbProxyObject
 90
      499
 91
      501
 93
      436
310
42CC9915DA5C99599C985B595049028333333333333E3BF0000000000000FB0107901411070040501600405405064090741402480A0340
1001
ACAD
1000
AcDbSavedByObjectVersion
1070
     0
  0
ACAD_PROXY_OBJECT
  5
31
102
{ACAD_REACTORS
330
2A
102
}
330
2A
100
AcDbProxyObject
 90
      499
 91
      501
 93
      500
310
424CD108121A5919195B90640502408333333333333E3BF0000000000000FB01079024090700405020000000000001110200405405064090740C02480A0340
1001
ACAD
1000
AcDbSavedByObjectVersion
1070
     0
  0
ACAD_PROXY_OBJECT
  5
30
102
{ACAD_REACTORS
330
2A
102
}
330
2A
100
AcDbProxyObject
 90
      499
 91
      501
 93
      436
310
42CCD915DA5C99599C985B595059028333333333333E3BF0000000000000FB0107901411070040501600405405064090741402480A0340
1001
ACAD
1000
AcDbSavedByObjectVersion
1070
     0
  0
ACAD_PROXY_OBJECT
  5
32
102
{ACAD_REACTORS
330
2A
102
}
330
2A
100
AcDbProxyObject
 90
      499
 91
      501
 93
      388
310
4150985CDA58D07406404333333333333E3BF0000000000000FB0107A41107004050150841D405064090741402480A0350
1001
ACAD
1000
AcDbSavedByObjectVersion
1070
     0
  0
ACAD_PROXY_OBJECT
  5
36
102
{ACAD_REACTORS
330
2A
102
}
330
2A
100
AcDbProxyObject
 90
      499
 91
      501
 93
      428
310
42109C9A59DA1D195B90C409028333333333333E3BF0000000000000FB010790141107004050150841D405064090741402480A029950
1001
ACAD
1000
AcDbSavedByObjectVersion
1070
     0
  0
ACAD_PROXY_OBJECT
  5
3A
102
{ACAD_REACTORS
330
2A
102
}
330
2A
100
AcDbProxyObject
 90
      499
 91
      501
 93
      452
310
42D0DBDB1BDC90DA185B99D95104090240C333333333333E3BF0000000000000FB0108901411070040501508421405064090741402480A0350
1001
ACAD
1000
AcDbSavedByObjectVersion
1070
     0
  0
ACAD_PROXY_OBJECT
  5
34
102
{ACAD_REACTORS
330
2A
102
}
330
2A
100
AcDbProxyObject
 90
      499
 91
      501
 93
      500
310
4290DBDB98D95C1D1D585B10940D028333333333333E3BF0000000000000FB0107902409070040501000000000000111010841D405064090740C02480A0340
1001
ACAD
1000
AcDbSavedByObjectVersion
1070
     0
  0
ACAD_PROXY_OBJECT
  5
35
102
{ACAD_REACTORS
330
2A
102
}
330
2A
100
AcDbProxyObject
 90
      499
 91
      501
 93
      412
310
40D11A5B50B409028333333333333E3BF0000000000000FB010790141107004050150841D405064090741402480A02677FFFFFD0
1001
ACAD
1000
AcDbSavedByObjectVersion
1070
     0
  0
ACAD_PROXY_OBJECT
  5
39
102
{ACAD_REACTORS
330
2A
102
}
330
2A
100
AcDbProxyObject
 90
      499
 91
      501
 93
      444
310
42D19858D95C185D1D195C9B90F409028333333333333E3BF0000000000000FB010790141107004050150841D405064090741402480A0350
1001
ACAD
1000
AcDbSavedByObjectVersion
1070
     0
  0
ACAD_PROXY_OBJECT
  5
2B
102
{ACAD_REACTORS
330
2A
102
}
330
2A
100
AcDbProxyObject
 90
      499
 91
      501
 93
      388
310
41119B185D240901404333333333333E3BF0000000000000F9010740A41107004050150841D405064090741402480A1B50
1001
ACAD
1000
AcDbSavedByObjectVersion
1070
     0
  0
ACAD_PROXY_OBJECT
  5
2C
102
{ACAD_REACTORS
330
2A
102
}
330
2A
100
AcDbProxyObject
 90
      499
 91
      501
 93
      476
310
43519B185D15DA5D1A115919D95CD0140901404333333333333E3BF0000000000000F9010740901411070040501600405405064090741402480A1B50
1001
ACAD
1000
AcDbSavedByObjectVersion
1070
     0
  0
ACAD_PROXY_OBJECT
  5
2D
102
{ACAD_REACTORS
330
2A
102
}
330
2A
100
AcDbProxyObject
 90
      499
 91
      501
 93
      412
310
41D1DBDD5C985D5910240902404333333333333E3BF0000000000000F9010740A411070040501641D405064090741402480A1B50
1001
ACAD
1000
AcDbSavedByObjectVersion
1070
     0
  0
ACAD_PROXY_OBJECT
  5
2E
102
{ACAD_REACTORS
330
2A
102
}
330
2A
100
AcDbProxyObject
 90
      499
 91
      501
 93
      500
310
4411DBDD5C985D5915DA5D1A115919D95CD0340902404333333333333E3BF0000000000000F9010740901411070040501600405405064090741402480A1B50
1001
ACAD
1000
AcDbSavedByObjectVersion
1070
     0
  0
ACAD_PROXY_OBJECT
  5
38
102
{ACAD_REACTORS
330
2A
102
}
330
2A
100
AcDbProxyObject
 90
      499
 91
      501
 93
      444
310
42D31A5B995C185D1D195C9B90E409028333333333333E3BF0000000000000FB010790141107004050750841D405064090741402483A0350
1001
ACAD
1000
AcDbSavedByObjectVersion
1070
     0
  0
ACAD_PROXY_OBJECT
  5
33
102
{ACAD_REACTORS
330
2A
102
}
330
2A
100
AcDbProxyObject
 90
      499
 91
      501
 93
      420
310
425499585B1A5CDD1A58D08409028333333333333E3BF0000000000000FB01079019070040501508421405064090741402480A1B40
1001
ACAD
1000
AcDbSavedByObjectVersion
1070
     0
  0
ACAD_PROXY_OBJECT
  5
37
102
{ACAD_REACTORS
330
2A
102
}
330
2A
100
AcDbProxyObject
 90
      499
 91
      501
 93
      412
310
41D51A1A58DAD95B90D409028333333333333E3BF0000000000000FB010790141107004050150C41D405064090741402480A0350
1001
ACAD
1000
AcDbSavedByObjectVersion
1070
     0
  0
XRECORD
  5
3E4
102
{ACAD_REACTORS
330
3DB
102
}
330
3DB
100
AcDbXrecord
 90
        0
  0
XRECORD
  5
3FA
102
{ACAD_REACTORS
330
3DB
102
}
330
3DB
100
AcDbXrecord
1000
DSTYLE
1002
{
1070
   340
340
11
1002
}
  0
XRECORD
  5
3E5
102
{ACAD_REACTORS
330
3DB
102
}
330
3DB
100
AcDbXrecord
  1
{8ACD2F97-BE11-4567-97C3-876EBA160A79}
  0
XRECORD
  5
3DE
102
{ACAD_REACTORS
330
3DB
102
}
330
3DB
100
AcDbXrecord
  1

  0
XRECORD
  5
3E3
102
{ACAD_REACTORS
330
3DB
102
}
330
3DB
100
AcDbXrecord
 90
        1
  0
XRECORD
  5
3E0
102
{ACAD_REACTORS
330
3DB
102
}
330
3DB
100
AcDbXrecord
340
1A
  0
XRECORD
  5
3E2
102
{ACAD_REACTORS
330
3DB
102
}
330
3DB
100
AcDbXrecord
 90
    10781
  0
XRECORD
  5
3E1
102
{ACAD_REACTORS
330
3DB
102
}
330
3DB
100
AcDbXrecord
340
19
  0
XRECORD
  5
3E7
102
{ACAD_REACTORS
330
3DB
102
}
330
3DB
100
AcDbXrecord
 40
0.0
  0
XRECORD
  5
3EA
102
{ACAD_REACTORS
330
3DB
102
}
330
3DB
100
AcDbXrecord
340
0
  0
XRECORD
  5
3F0
102
{ACAD_REACTORS
330
3DB
102
}
330
3DB
100
AcDbXrecord
 10
0.0
 20
0.0
 30
0.0
  0
XRECORD
  5
3EC
102
{ACAD_REACTORS
330
3DB
102
}
330
3DB
100
AcDbXrecord
 10
0.0
 20
0.0
 30
0.0
  0
XRECORD
  5
3EF
102
{ACAD_REACTORS
330
3DB
102
}
330
3DB
100
AcDbXrecord
 10
0.0
 20
0.0
 30
0.0
  0
XRECORD
  5
3ED
102
{ACAD_REACTORS
330
3DB
102
}
330
3DB
100
AcDbXrecord
 10
0.0
 20
0.0
 30
0.0
  0
XRECORD
  5
3EE
102
{ACAD_REACTORS
330
3DB
102
}
330
3DB
100
AcDbXrecord
 10
0.0
 20
0.0
 30
0.0
  0
XRECORD
  5
3EB
102
{ACAD_REACTORS
330
3DB
102
}
330
3DB
100
AcDbXrecord
 10
0.0
 20
0.0
 30
0.0
  0
XRECORD
  5
3E8
102
{ACAD_REACTORS
330
3DB
102
}
330
3DB
100
AcDbXrecord
340
0
  0
XRECORD
  5
3E9
102
{ACAD_REACTORS
330
3DB
102
}
330
3DB
100
AcDbXrecord
 70
     0
  0
XRECORD
  5
3DF
102
{ACAD_REACTORS
330
3DB
102
}
330
3DB
100
AcDbXrecord
  1

  0
XRECORD
  5
3DC
102
{ACAD_REACTORS
330
3DB
102
}
330
3DB
100
AcDbXrecord
 90
        1
  0
XRECORD
  5
3DD
102
{ACAD_REACTORS
330
3DB
102
}
330
3DB
100
AcDbXrecord
 90
       70
  0
XRECORD
  5
3F3
102
{ACAD_REACTORS
330
3DB
102
}
330
3DB
100
AcDbXrecord
340
0
  0
XRECORD
  5
3F9
102
{ACAD_REACTORS
330
3DB
102
}
330
3DB
100
AcDbXrecord
 10
0.0
 20
0.0
 30
0.0
  0
XRECORD
  5
3F5
102
{ACAD_REACTORS
330
3DB
102
}
330
3DB
100
AcDbXrecord
 10
0.0
 20
0.0
 30
0.0
  0
XRECORD
  5
3F8
102
{ACAD_REACTORS
330
3DB
102
}
330
3DB
100
AcDbXrecord
 10
0.0
 20
0.0
 30
0.0
  0
XRECORD
  5
3F6
102
{ACAD_REACTORS
330
3DB
102
}
330
3DB
100
AcDbXrecord
 10
0.0
 20
0.0
 30
0.0
  0
XRECORD
  5
3F7
102
{ACAD_REACTORS
330
3DB
102
}
330
3DB
100
AcDbXrecord
 10
0.0
 20
0.0
 30
0.0
  0
XRECORD
  5
3F4
102
{ACAD_REACTORS
330
3DB
102
}
330
3DB
100
AcDbXrecord
 10
0.0
 20
0.0
 30
0.0
  0
XRECORD
  5
3F1
102
{ACAD_REACTORS
330
3DB
102
}
330
3DB
100
AcDbXrecord
340
0
  0
XRECORD
  5
3F2
102
{ACAD_REACTORS
330
3DB
102
}
330
3DB
100
AcDbXrecord
 70
     0
  0
XRECORD
  5
3E6
102
{ACAD_REACTORS
330
3DB
102
}
330
3DB
100
AcDbXrecord
  1
{FAEB1C32-E019-11D5-929B-00C0DF256EC4}
  0
DICTIONARYVAR
  5
3FE
102
{ACAD_REACTORS
330
3FB
102
}
330
3FB
100
DictionaryVariables
280
     0
  1
1:1
  0
DICTIONARYVAR
  5
3FF
102
{ACAD_REACTORS
330
3FB
102
}
330
3FB
100
DictionaryVariables
280
     0
  1
2
  0
DICTIONARYVAR
  5
400
102
{ACAD_REACTORS
330
3FB
102
}
330
3FB
100
DictionaryVariables
280
     0
  1
1
  0
DICTIONARY
  5
403
330
3D
100
AcDbDictionary
280
     1
  3
ACAD_XREC_ROUNDTRIP
360
404
  0
DICTIONARY
  5
401
330
3C
100
AcDbDictionary
280
     1
  3
ACAD_XREC_ROUNDTRIP
360
402
  0
DICTIONARY
  5
405
330
3E
100
AcDbDictionary
280
     1
  3
ACAD_XREC_ROUNDTRIP
360
406
  0
XRECORD
  5
404
102
{ACAD_REACTORS
330
403
102
}
330
403
100
AcDbXrecord
102
MATERIAL
148
0.0
149
0.0
149
0.0
 93
        0
 94
      127
282
     0
 72
     1
 77
     1
171
     1
175
     1
179
     1
273
     0
  0
XRECORD
  5
402
102
{ACAD_REACTORS
330
401
102
}
330
401
100
AcDbXrecord
102
MATERIAL
148
0.0
149
0.0
149
0.0
 93
        0
 94
      127
282
     0
 72
     1
 77
     1
171
     1
175
     1
179
     1
273
     0
  0
XRECORD
  5
406
102
{ACAD_REACTORS
330
405
102
}
330
405
100
AcDbXrecord
102
MATERIAL
148
0.0
149
0.0
149
0.0
 93
        0
 94
      127
282
     0
 72
     1
 77
     1
171
     1
175
     1
179
     1
273
     0
  0
ENDSEC
  0
EOF
