  0
SECTION
  2
HEADER
  9
$ACADVER
  1
AC1015
  9
$ACADMAINTVER
 70
    18
  9
$DWGCODEPAGE
  3
ANSI_1252
  9
$INSBASE
 10
0.0
 20
0.0
 30
0.0
  9
$EXTMIN
 10
0.0000000000000103
 20
-1.000000029802324
 30
-0.0000000000007413
  9
$EXTMAX
 10
71.99999999999999
 20
1.000000029802324
 30
1.062499970197677
  9
$LIMMIN
 10
0.0
 20
0.0
  9
$LIMMAX
 10
12.0
 20
9.0
  9
$ORTHOMODE
 70
     0
  9
$REGENMODE
 70
     1
  9
$FILLMODE
 70
     1
  9
$QTEXTMODE
 70
     0
  9
$MIRRTEXT
 70
     0
  9
$LTSCALE
 40
1.0
  9
$ATTMODE
 70
     1
  9
$TEXTSIZE
 40
0.2
  9
$TRACEWID
 40
0.05
  9
$TEXTSTYLE
  7
Standard
  9
$CLAYER
  8
0
  9
$CELTYPE
  6
ByLayer
  9
$CECOLOR
 62
   256
  9
$CELTSCALE
 40
1.0
  9
$DISPSILH
 70
     0
  9
$DIMSCALE
 40
1.0
  9
$DIMASZ
 40
0.18
  9
$DIMEXO
 40
0.0625
  9
$DIMDLI
 40
0.38
  9
$DIMRND
 40
0.0
  9
$DIMDLE
 40
0.0
  9
$DIMEXE
 40
0.18
  9
$DIMTP
 40
0.0
  9
$DIMTM
 40
0.0
  9
$DIMTXT
 40
0.18
  9
$DIMCEN
 40
0.09
  9
$DIMTSZ
 40
0.0
  9
$DIMTOL
 70
     0
  9
$DIMLIM
 70
     0
  9
$DIMTIH
 70
     1
  9
$DIMTOH
 70
     1
  9
$DIMSE1
 70
     0
  9
$DIMSE2
 70
     0
  9
$DIMTAD
 70
     0
  9
$DIMZIN
 70
     0
  9
$DIMBLK
  1

  9
$DIMASO
 70
     1
  9
$DIMSHO
 70
     1
  9
$DIMPOST
  1

  9
$DIMAPOST
  1

  9
$DIMALT
 70
     0
  9
$DIMALTD
 70
     2
  9
$DIMALTF
 40
25.4
  9
$DIMLFAC
 40
1.0
  9
$DIMTOFL
 70
     0
  9
$DIMTVP
 40
0.0
  9
$DIMTIX
 70
     0
  9
$DIMSOXD
 70
     0
  9
$DIMSAH
 70
     0
  9
$DIMBLK1
  1

  9
$DIMBLK2
  1

  9
$DIMSTYLE
  2
Standard
  9
$DIMCLRD
 70
     0
  9
$DIMCLRE
 70
     0
  9
$DIMCLRT
 70
     0
  9
$DIMTFAC
 40
1.0
  9
$DIMGAP
 40
0.09
  9
$DIMJUST
 70
     0
  9
$DIMSD1
 70
     0
  9
$DIMSD2
 70
     0
  9
$DIMTOLJ
 70
     1
  9
$DIMTZIN
 70
     0
  9
$DIMALTZ
 70
     0
  9
$DIMALTTZ
 70
     0
  9
$DIMUPT
 70
     0
  9
$DIMDEC
 70
     4
  9
$DIMTDEC
 70
     4
  9
$DIMALTU
 70
     4
  9
$DIMALTTD
 70
     2
  9
$DIMTXSTY
  7
Standard
  9
$DIMAUNIT
 70
     0
  9
$DIMADEC
 70
     0
  9
$DIMALTRND
 40
0.0
  9
$DIMAZIN
 70
     0
  9
$DIMDSEP
 70
    46
  9
$DIMATFIT
 70
     3
  9
$DIMFRAC
 70
     0
  9
$DIMLDRBLK
  1

  9
$DIMLUNIT
 70
     4
  9
$DIMLWD
 70
    -2
  9
$DIMLWE
 70
    -2
  9
$DIMTMOVE
 70
     0
  9
$LUNITS
 70
     4
  9
$LUPREC
 70
     4
  9
$SKETCHINC
 40
0.1
  9
$FILLETRAD
 40
0.0
  9
$AUNITS
 70
     0
  9
$AUPREC
 70
     0
  9
$MENU
  1
.
  9
$ELEVATION
 40
0.0
  9
$PELEVATION
 40
0.0
  9
$THICKNESS
 40
0.0
  9
$LIMCHECK
 70
     0
  9
$CHAMFERA
 40
0.0
  9
$CHAMFERB
 40
0.0
  9
$CHAMFERC
 40
0.0
  9
$CHAMFERD
 40
0.0
  9
$SKPOLY
 70
     0
  9
$TDCREATE
 40
2455587.612332836
  9
$TDUCREATE
 40
2455587.820666169
  9
$TDUPDATE
 40
2455587.612332836
  9
$TDUUPDATE
 40
2455587.820666169
  9
$TDINDWG
 40
0.0000017824
  9
$TDUSRTIMER
 40
0.0000017824
  9
$USRTIMER
 70
     1
  9
$ANGBASE
 50
0.0
  9
$ANGDIR
 70
     0
  9
$PDMODE
 70
     0
  9
$PDSIZE
 40
0.0
  9
$PLINEWID
 40
0.0
  9
$SPLFRAME
 70
     0
  9
$SPLINETYPE
 70
     6
  9
$SPLINESEGS
 70
     8
  9
$HANDSEED
  5
485
  9
$SURFTAB1
 70
     6
  9
$SURFTAB2
 70
     6
  9
$SURFTYPE
 70
     6
  9
$SURFU
 70
     6
  9
$SURFV
 70
     6
  9
$UCSBASE
  2

  9
$UCSNAME
  2

  9
$UCSORG
 10
0.0
 20
0.0
 30
0.0
  9
$UCSXDIR
 10
1.0
 20
0.0
 30
0.0
  9
$UCSYDIR
 10
0.0
 20
1.0
 30
0.0
  9
$UCSORTHOREF
  2

  9
$UCSORTHOVIEW
 70
     0
  9
$UCSORGTOP
 10
0.0
 20
0.0
 30
0.0
  9
$UCSORGBOTTOM
 10
0.0
 20
0.0
 30
0.0
  9
$UCSORGLEFT
 10
0.0
 20
0.0
 30
0.0
  9
$UCSORGRIGHT
 10
0.0
 20
0.0
 30
0.0
  9
$UCSORGFRONT
 10
0.0
 20
0.0
 30
0.0
  9
$UCSORGBACK
 10
0.0
 20
0.0
 30
0.0
  9
$PUCSBASE
  2

  9
$PUCSNAME
  2

  9
$PUCSORG
 10
0.0
 20
0.0
 30
0.0
  9
$PUCSXDIR
 10
1.0
 20
0.0
 30
0.0
  9
$PUCSYDIR
 10
0.0
 20
1.0
 30
0.0
  9
$PUCSORTHOREF
  2

  9
$PUCSORTHOVIEW
 70
     0
  9
$PUCSORGTOP
 10
0.0
 20
0.0
 30
0.0
  9
$PUCSORGBOTTOM
 10
0.0
 20
0.0
 30
0.0
  9
$PUCSORGLEFT
 10
0.0
 20
0.0
 30
0.0
  9
$PUCSORGRIGHT
 10
0.0
 20
0.0
 30
0.0
  9
$PUCSORGFRONT
 10
0.0
 20
0.0
 30
0.0
  9
$PUCSORGBACK
 10
0.0
 20
0.0
 30
0.0
  9
$USERI1
 70
     0
  9
$USERI2
 70
     0
  9
$USERI3
 70
     0
  9
$USERI4
 70
     0
  9
$USERI5
 70
     0
  9
$USERR1
 40
0.0
  9
$USERR2
 40
0.0
  9
$USERR3
 40
0.0
  9
$USERR4
 40
0.0
  9
$USERR5
 40
0.0
  9
$WORLDVIEW
 70
     1
  9
$SHADEDGE
 70
     3
  9
$SHADEDIF
 70
    70
  9
$TILEMODE
 70
     1
  9
$MAXACTVP
 70
    64
  9
$PINSBASE
 10
0.0
 20
0.0
 30
0.0
  9
$PLIMCHECK
 70
     0
  9
$PEXTMIN
 10
1.000000000000000E+20
 20
1.000000000000000E+20
 30
1.000000000000000E+20
  9
$PEXTMAX
 10
-1.000000000000000E+20
 20
-1.000000000000000E+20
 30
-1.000000000000000E+20
  9
$PLIMMIN
 10
0.0
 20
0.0
  9
$PLIMMAX
 10
12.0
 20
9.0
  9
$UNITMODE
 70
     0
  9
$VISRETAIN
 70
     1
  9
$PLINEGEN
 70
     0
  9
$PSLTSCALE
 70
     1
  9
$TREEDEPTH
 70
  3020
  9
$CMLSTYLE
  2
Standard
  9
$CMLJUST
 70
     0
  9
$CMLSCALE
 40
1.0
  9
$PROXYGRAPHICS
 70
     1
  9
$MEASUREMENT
 70
     0
  9
$CELWEIGHT
370
    -1
  9
$ENDCAPS
280
     0
  9
$JOINSTYLE
280
     0
  9
$LWDISPLAY
290
     0
  9
$INSUNITS
 70
     1
  9
$HYPERLINKBASE
  1

  9
$STYLESHEET
  1

  9
$XEDIT
290
     1
  9
$CEPSNTYPE
380
     0
  9
$PSTYLEMODE
290
     1
  9
$FINGERPRINTGUID
  2
{3D5E4924-8E9A-4C55-93E9-15622FFB7EA6}
  9
$VERSIONGUID
  2
{FC76AB1F-6751-431C-80C6-2EA6BA8B5277}
  9
$EXTNAMES
290
     1
  9
$PSVPSCALE
 40
0.0
  9
$OLESTARTUP
290
     0
  0
ENDSEC
  0
SECTION
  2
CLASSES
  0
CLASS
  1
ACDBDICTIONARYWDFLT
  2
AcDbDictionaryWithDefault
  3
ObjectDBX Classes
 90
        0
280
     0
281
     0
  0
CLASS
  1
MATERIAL
  2
AcDbMaterial
  3
ObjectDBX Classes
 90
     1153
280
     0
281
     0
  0
CLASS
  1
VISUALSTYLE
  2
AcDbVisualStyle
  3
ObjectDBX Classes
 90
     4095
280
     0
281
     0
  0
CLASS
  1
SCALE
  2
AcDbScale
  3
ObjectDBX Classes
 90
     1153
280
     0
281
     0
  0
CLASS
  1
TABLESTYLE
  2
AcDbTableStyle
  3
ObjectDBX Classes
 90
     4095
280
     0
281
     0
  0
CLASS
  1
MLEADERSTYLE
  2
AcDbMLeaderStyle
  3
ACDB_MLEADERSTYLE_CLASS
 90
     4095
280
     0
281
     0
  0
CLASS
  1
SUN
  2
AcDbSun
  3
SCENEOE
 90
     1153
280
     0
281
     0
  0
CLASS
  1
DICTIONARYVAR
  2
AcDbDictionaryVar
  3
ObjectDBX Classes
 90
        0
280
     0
281
     0
  0
CLASS
  1
CELLSTYLEMAP
  2
AcDbCellStyleMap
  3
ObjectDBX Classes
 90
     1152
280
     0
281
     0
  0
CLASS
  1
ACDBPLACEHOLDER
  2
AcDbPlaceHolder
  3
ObjectDBX Classes
 90
        0
280
     0
281
     0
  0
CLASS
  1
LAYOUT
  2
AcDbLayout
  3
ObjectDBX Classes
 90
        0
280
     0
281
     0
  0
ENDSEC
  0
SECTION
  2
TABLES
  0
TABLE
  2
VPORT
  5
8
330
0
100
AcDbSymbolTable
 70
     1
  0
VPORT
  5
5F
330
8
100
AcDbSymbolTableRecord
100
AcDbViewportTableRecord
  2
*Active
 70
     0
 10
0.0
 20
0.0
 11
1.0
 21
1.0
 12
36.0
 22
0.0
 13
0.0
 23
0.0
 14
1.0
 24
1.0
 15
0.0
 25
0.0
 16
-17.04763990533913
 26
-17.04763990533913
 36
17.04763990533913
 17
23.99999999999996
 27
-0.0000000000009672
 37
2.250000000001094
 40
2.000000059604648
 41
35.99999892711636
 42
50.0
 43
0.0
 44
0.0
 50
0.0
 51
0.0
 71
     0
 72
   100
 73
     1
 74
     1
 75
     0
 76
     0
 77
     0
 78
     0
281
     6
 65
     1
110
0.0
120
0.0
130
0.0
111
1.0
121
0.0
131
0.0
112
0.0
122
1.0
132
0.0
 79
     0
146
0.0
  0
ENDTAB
  0
TABLE
  2
LTYPE
  5
5
330
0
100
AcDbSymbolTable
 70
     1
  0
LTYPE
  5
63
330
5
100
AcDbSymbolTableRecord
100
AcDbLinetypeTableRecord
  2
ByBlock
 70
     0
  3

 72
    65
 73
     0
 40
0.0
  0
LTYPE
  5
64
330
5
100
AcDbSymbolTableRecord
100
AcDbLinetypeTableRecord
  2
ByLayer
 70
     0
  3

 72
    65
 73
     0
 40
0.0
  0
LTYPE
  5
65
330
5
100
AcDbSymbolTableRecord
100
AcDbLinetypeTableRecord
  2
Continuous
 70
     0
  3
Solid line
 72
    65
 73
     0
 40
0.0
  0
ENDTAB
  0
TABLE
  2
LAYER
  5
2
330
0
100
AcDbSymbolTable
 70
     2
  0
LAYER
  5
5C
330
2
100
AcDbSymbolTableRecord
100
AcDbLayerTableRecord
  2
0
 70
     0
 62
     7
  6
Continuous
370
    -3
390
F
  0
LAYER
  5
7F
330
2
100
AcDbSymbolTableRecord
100
AcDbLayerTableRecord
  2
3D-EQPM
 70
     0
 62
     6
  6
Continuous
370
     9
390
F
  0
ENDTAB
  0
TABLE
  2
STYLE
  5
3
330
0
100
AcDbSymbolTable
 70
     2
  0
STYLE
  5
5D
330
3
100
AcDbSymbolTableRecord
100
AcDbTextStyleTableRecord
  2
Standard
 70
     0
 40
0.0
 41
1.0
 50
0.0
 71
     0
 42
0.2
  3
txt
  4

  0
STYLE
  5
62
330
3
100
AcDbSymbolTableRecord
100
AcDbTextStyleTableRecord
  2
Annotative
 70
     0
 40
0.0
 41
1.0
 50
0.0
 71
     0
 42
0.2
  3
txt
  4

1001
AcadAnnotative
1000
AnnotativeData
1002
{
1070
     1
1070
     1
1002
}
  0
ENDTAB
  0
TABLE
  2
VIEW
  5
6
330
0
100
AcDbSymbolTable
 70
     1
  0
VIEW
  5
45A
330
6
100
AcDbSymbolTableRecord
100
AcDbViewTableRecord
  2
Export
 70
     0
 40
2400.0
 10
0.0
 20
0.0
 41
2400.0
 11
-17.04763990533913
 21
-17.04763990533913
 31
17.04763990533913
 12
23.99999999999996
 22
-0.0000000000009672
 32
2.250000000001094
 42
50.0
 43
0.0
 44
0.0
 50
0.0
 71
     0
281
     0
 72
     0
  0
ENDTAB
  0
TABLE
  2
UCS
  5
7
330
0
100
AcDbSymbolTable
 70
     0
  0
ENDTAB
  0
TABLE
  2
APPID
  5
9
330
0
100
AcDbSymbolTable
 70
     4
  0
APPID
  5
5E
330
9
100
AcDbSymbolTableRecord
100
AcDbRegAppTableRecord
  2
ACAD
 70
     0
  0
APPID
  5
66
330
9
100
AcDbSymbolTableRecord
100
AcDbRegAppTableRecord
  2
AcadAnnotative
 70
     0
  0
APPID
  5
70
330
9
100
AcDbSymbolTableRecord
100
AcDbRegAppTableRecord
  2
ACAD_MLEADERVER
 70
     0
  0
APPID
  5
7D
330
9
100
AcDbSymbolTableRecord
100
AcDbRegAppTableRecord
  2
REVIT
 70
     0
  0
ENDTAB
  0
TABLE
  2
DIMSTYLE
  5
A
330
0
100
AcDbSymbolTable
 70
     2
100
AcDbDimStyleTable
 71
     0
  0
DIMSTYLE
105
60
330
A
100
AcDbSymbolTableRecord
100
AcDbDimStyleTableRecord
  2
Standard
 70
     0
340
5D
  0
DIMSTYLE
105
61
330
A
100
AcDbSymbolTableRecord
100
AcDbDimStyleTableRecord
  2
Annotative
 70
     0
340
5D
1001
AcadAnnotative
1000
AnnotativeData
1002
{
1070
     1
1070
     1
1002
}
  0
ENDTAB
  0
TABLE
  2
BLOCK_RECORD
  5
1
330
0
100
AcDbSymbolTable
 70
     4
  0
BLOCK_RECORD
  5
75
330
1
100
AcDbSymbolTableRecord
100
AcDbBlockTableRecord
  2
*Model_Space
340
78
  0
BLOCK_RECORD
  5
71
330
1
100
AcDbSymbolTableRecord
100
AcDbBlockTableRecord
  2
*Paper_Space
340
74
  0
BLOCK_RECORD
  5
79
330
1
100
AcDbSymbolTableRecord
100
AcDbBlockTableRecord
  2
*Paper_Space0
340
7C
  0
BLOCK_RECORD
  5
80
330
1
100
AcDbSymbolTableRecord
100
AcDbBlockTableRecord
  2
Support_Jolt - _084-Export0
340
0
102
{BLKREFS
331
37B
331
37C
331
37D
331
37E
331
37F
331
380
331
381
331
382
331
383
331
384
102
}
  0
BLOCK_RECORD
  5
385
330
1
100
AcDbSymbolTableRecord
100
AcDbBlockTableRecord
  2
FamilyGeomCombi_628-Export0
340
0
102
{BLKREFS
331
3ED
102
}
  0
BLOCK_RECORD
  5
3EE
330
1
100
AcDbSymbolTableRecord
100
AcDbBlockTableRecord
  2
FamilyGeomCombi_629-Export0
340
0
102
{BLKREFS
331
459
102
}
  0
ENDTAB
  0
ENDSEC
  0
SECTION
  2
BLOCKS
  0
BLOCK
  5
76
330
75
100
AcDbEntity
  8
0
100
AcDbBlockBegin
  2
*Model_Space
 70
     0
 10
0.0
 20
0.0
 30
0.0
  3
*Model_Space
  1

  0
ENDBLK
  5
77
330
75
100
AcDbEntity
  8
0
100
AcDbBlockEnd
  0
BLOCK
  5
72
330
71
100
AcDbEntity
 67
     1
  8
0
100
AcDbBlockBegin
  2
*Paper_Space
 70
     0
 10
0.0
 20
0.0
 30
0.0
  3
*Paper_Space
  1

  0
ENDBLK
  5
73
330
71
100
AcDbEntity
 67
     1
  8
0
100
AcDbBlockEnd
  0
BLOCK
  5
7A
330
79
100
AcDbEntity
 67
     1
  8
0
100
AcDbBlockBegin
  2
*Paper_Space0
 70
     0
 10
0.0
 20
0.0
 30
0.0
  3
*Paper_Space0
  1

  0
ENDBLK
  5
7B
330
79
100
AcDbEntity
 67
     1
  8
0
100
AcDbBlockEnd
  0
BLOCK
  5
379
330
80
100
AcDbEntity
  8
0
100
AcDbBlockBegin
  2
Support_Jolt - _084-Export0
 70
     0
 10
0.0
 20
0.0
 30
0.0
  3
Support_Jolt - _084-Export0
  1

  0
POLYLINE
  5
81
330
80
100
AcDbEntity
  8
3D-EQPM
100
AcDbPolyFaceMesh
 66
     1
 10
0.0
 20
0.0
 30
0.0
 70
    64
 71
    14
 72
     6
1001
REVIT
1002
{
1070
     4
1000
26971
1002
}
1002
{
1070
     3
1000
6341
1002
}
  0
VERTEX
  5
82
330
81
100
AcDbEntity
  8
3D-EQPM
100
AcDbVertex
100
AcDbPolyFaceMeshVertex
 10
0.4062500149011611
 20
-0.1367034986615181
 30
1.062499970197677
 70
   192
  0
VERTEX
  5
83
330
81
100
AcDbEntity
  8
3D-EQPM
100
AcDbVertex
100
AcDbPolyFaceMeshVertex
 10
0.4062500149011611
 20
-0.1367034986615181
 30
0.7307281494140625
 70
   192
  0
VERTEX
  5
84
330
81
100
AcDbEntity
  8
3D-EQPM
100
AcDbVertex
100
AcDbPolyFaceMeshVertex
 10
0.4062500149011611
 20
-0.1735373698174953
 30
0.7307281494140625
 70
   192
  0
VERTEX
  5
85
330
81
100
AcDbEntity
  8
3D-EQPM
100
AcDbVertex
100
AcDbPolyFaceMeshVertex
 10
0.4062500149011611
 20
-0.1735373698174953
 30
0.6919789910316467
 70
   192
  0
VERTEX
  5
86
330
81
100
AcDbEntity
  8
3D-EQPM
100
AcDbVertex
100
AcDbPolyFaceMeshVertex
 10
0.4062500149011611
 20
-0.0386697147041559
 30
0.5312499850988388
 70
   192
  0
VERTEX
  5
87
330
81
100
AcDbEntity
  8
3D-EQPM
100
AcDbVertex
100
AcDbPolyFaceMeshVertex
 10
0.4062500149011611
 20
-0.2473843395709991
 30
0.5312499850988388
 70
   192
  0
VERTEX
  5
88
330
81
100
AcDbEntity
  8
3D-EQPM
100
AcDbVertex
100
AcDbPolyFaceMeshVertex
 10
0.4062500149011611
 20
-0.2473843395709991
 30
0.470670998096466
 70
   192
  0
VERTEX
  5
89
330
81
100
AcDbEntity
  8
3D-EQPM
100
AcDbVertex
100
AcDbPolyFaceMeshVertex
 10
0.4062500149011611
 20
0.2473843395709991
 30
0.470670998096466
 70
   192
  0
VERTEX
  5
8A
330
81
100
AcDbEntity
  8
3D-EQPM
100
AcDbVertex
100
AcDbPolyFaceMeshVertex
 10
0.4062500149011611
 20
0.2473843395709991
 30
0.5312499850988388
 70
   192
  0
VERTEX
  5
8B
330
81
100
AcDbEntity
  8
3D-EQPM
100
AcDbVertex
100
AcDbPolyFaceMeshVertex
 10
0.4062500149011611
 20
0.0386697147041559
 30
0.5312499850988388
 70
   192
  0
VERTEX
  5
8C
330
81
100
AcDbEntity
  8
3D-EQPM
100
AcDbVertex
100
AcDbPolyFaceMeshVertex
 10
0.4062500149011611
 20
0.1735373698174953
 30
0.6919789910316467
 70
   192
  0
VERTEX
  5
8D
330
81
100
AcDbEntity
  8
3D-EQPM
100
AcDbVertex
100
AcDbPolyFaceMeshVertex
 10
0.4062500149011611
 20
0.1735373698174953
 30
0.7307281494140625
 70
   192
  0
VERTEX
  5
8E
330
81
100
AcDbEntity
  8
3D-EQPM
100
AcDbVertex
100
AcDbPolyFaceMeshVertex
 10
0.4062500149011611
 20
0.1367034986615181
 30
0.7307281494140625
 70
   192
  0
VERTEX
  5
8F
330
81
100
AcDbEntity
  8
3D-EQPM
100
AcDbVertex
100
AcDbPolyFaceMeshVertex
 10
0.4062500149011611
 20
0.1367034986615181
 30
1.062499970197677
 70
   192
  0
VERTEX
  5
90
330
81
100
AcDbEntity
  8
3D-EQPM
100
AcDbFaceRecord
 10
0.0
 20
0.0
 30
0.0
 70
   128
 71
     2
 72
     3
 73
     4
 74
    -5
  0
VERTEX
  5
91
330
81
100
AcDbEntity
  8
3D-EQPM
100
AcDbFaceRecord
 10
0.0
 20
0.0
 30
0.0
 70
   128
 71
    -2
 72
    13
 73
    14
 74
     1
  0
VERTEX
  5
92
330
81
100
AcDbEntity
  8
3D-EQPM
100
AcDbFaceRecord
 10
0.0
 20
0.0
 30
0.0
 70
   128
 71
   -10
 72
   -13
 73
    -2
 74
    -5
  0
VERTEX
  5
93
330
81
100
AcDbEntity
  8
3D-EQPM
100
AcDbFaceRecord
 10
0.0
 20
0.0
 30
0.0
 70
   128
 71
    11
 72
    12
 73
   -13
 74
    10
  0
VERTEX
  5
94
330
81
100
AcDbEntity
  8
3D-EQPM
100
AcDbFaceRecord
 10
0.0
 20
0.0
 30
0.0
 70
   128
 71
     5
 72
     6
 73
    -7
 74
   -10
  0
VERTEX
  5
95
330
81
100
AcDbEntity
  8
3D-EQPM
100
AcDbFaceRecord
 10
0.0
 20
0.0
 30
0.0
 70
   128
 71
     8
 72
     9
 73
   -10
 74
     7
  0
SEQEND
  5
96
330
81
100
AcDbEntity
  8
3D-EQPM
  0
POLYLINE
  5
97
330
80
100
AcDbEntity
  8
3D-EQPM
100
AcDbPolyFaceMesh
 66
     1
 10
0.0
 20
0.0
 30
0.0
 70
    64
 71
    14
 72
     6
1001
REVIT
1002
{
1070
     4
1000
26971
1002
}
1002
{
1070
     3
1000
6341
1002
}
  0
VERTEX
  5
98
330
97
100
AcDbEntity
  8
3D-EQPM
100
AcDbVertex
100
AcDbPolyFaceMeshVertex
 10
0.3437500074505805
 20
-0.1367034986615181
 30
1.062499970197677
 70
   192
  0
VERTEX
  5
99
330
97
100
AcDbEntity
  8
3D-EQPM
100
AcDbVertex
100
AcDbPolyFaceMeshVertex
 10
0.3437500074505805
 20
0.1367034986615181
 30
1.062499970197677
 70
   192
  0
VERTEX
  5
9A
330
97
100
AcDbEntity
  8
3D-EQPM
100
AcDbVertex
100
AcDbPolyFaceMeshVertex
 10
0.3437500074505805
 20
0.1367034986615181
 30
0.7307281494140625
 70
   192
  0
VERTEX
  5
9B
330
97
100
AcDbEntity
  8
3D-EQPM
100
AcDbVertex
100
AcDbPolyFaceMeshVertex
 10
0.3437500074505805
 20
0.1735373698174953
 30
0.7307281494140625
 70
   192
  0
VERTEX
  5
9C
330
97
100
AcDbEntity
  8
3D-EQPM
100
AcDbVertex
100
AcDbPolyFaceMeshVertex
 10
0.3437500074505805
 20
0.1735373698174953
 30
0.6919789910316467
 70
   192
  0
VERTEX
  5
9D
330
97
100
AcDbEntity
  8
3D-EQPM
100
AcDbVertex
100
AcDbPolyFaceMeshVertex
 10
0.3437500074505805
 20
0.0386697147041559
 30
0.5312499850988388
 70
   192
  0
VERTEX
  5
9E
330
97
100
AcDbEntity
  8
3D-EQPM
100
AcDbVertex
100
AcDbPolyFaceMeshVertex
 10
0.3437500074505805
 20
0.2473843395709991
 30
0.5312499850988388
 70
   192
  0
VERTEX
  5
9F
330
97
100
AcDbEntity
  8
3D-EQPM
100
AcDbVertex
100
AcDbPolyFaceMeshVertex
 10
0.3437500074505805
 20
0.2473843395709991
 30
0.470670998096466
 70
   192
  0
VERTEX
  5
A0
330
97
100
AcDbEntity
  8
3D-EQPM
100
AcDbVertex
100
AcDbPolyFaceMeshVertex
 10
0.3437500074505805
 20
-0.2473843395709991
 30
0.470670998096466
 70
   192
  0
VERTEX
  5
A1
330
97
100
AcDbEntity
  8
3D-EQPM
100
AcDbVertex
100
AcDbPolyFaceMeshVertex
 10
0.3437500074505805
 20
-0.2473843395709991
 30
0.5312499850988388
 70
   192
  0
VERTEX
  5
A2
330
97
100
AcDbEntity
  8
3D-EQPM
100
AcDbVertex
100
AcDbPolyFaceMeshVertex
 10
0.3437500074505805
 20
-0.0386697147041559
 30
0.5312499850988388
 70
   192
  0
VERTEX
  5
A3
330
97
100
AcDbEntity
  8
3D-EQPM
100
AcDbVertex
100
AcDbPolyFaceMeshVertex
 10
0.3437500074505805
 20
-0.1735373698174953
 30
0.6919789910316467
 70
   192
  0
VERTEX
  5
A4
330
97
100
AcDbEntity
  8
3D-EQPM
100
AcDbVertex
100
AcDbPolyFaceMeshVertex
 10
0.3437500074505805
 20
-0.1735373698174953
 30
0.7307281494140625
 70
   192
  0
VERTEX
  5
A5
330
97
100
AcDbEntity
  8
3D-EQPM
100
AcDbVertex
100
AcDbPolyFaceMeshVertex
 10
0.3437500074505805
 20
-0.1367034986615181
 30
0.7307281494140625
 70
   192
  0
VERTEX
  5
A6
330
97
100
AcDbEntity
  8
3D-EQPM
100
AcDbFaceRecord
 10
0.0
 20
0.0
 30
0.0
 70
   128
 71
     9
 72
    10
 73
   -11
 74
    -6
  0
VERTEX
  5
A7
330
97
100
AcDbEntity
  8
3D-EQPM
100
AcDbFaceRecord
 10
0.0
 20
0.0
 30
0.0
 70
   128
 71
    -6
 72
   -11
 73
   -14
 74
    -3
  0
VERTEX
  5
A8
330
97
100
AcDbEntity
  8
3D-EQPM
100
AcDbFaceRecord
 10
0.0
 20
0.0
 30
0.0
 70
   128
 71
     6
 72
     7
 73
     8
 74
    -9
  0
VERTEX
  5
A9
330
97
100
AcDbEntity
  8
3D-EQPM
100
AcDbFaceRecord
 10
0.0
 20
0.0
 30
0.0
 70
   128
 71
     5
 72
    -6
 73
     3
 74
     4
  0
VERTEX
  5
AA
330
97
100
AcDbEntity
  8
3D-EQPM
100
AcDbFaceRecord
 10
0.0
 20
0.0
 30
0.0
 70
   128
 71
    12
 72
    13
 73
   -14
 74
    11
  0
VERTEX
  5
AB
330
97
100
AcDbEntity
  8
3D-EQPM
100
AcDbFaceRecord
 10
0.0
 20
0.0
 30
0.0
 70
   128
 71
     2
 72
    -3
 73
    14
 74
     1
  0
SEQEND
  5
AC
330
97
100
AcDbEntity
  8
3D-EQPM
  0
POLYLINE
  5
AD
330
80
100
AcDbEntity
  8
3D-EQPM
100
AcDbPolyFaceMesh
 66
     1
 10
0.0
 20
0.0
 30
0.0
 70
    64
 71
     4
 72
     1
1001
REVIT
1002
{
1070
     4
1000
26971
1002
}
1002
{
1070
     3
1000
6341
1002
}
  0
VERTEX
  5
AE
330
AD
100
AcDbEntity
  8
3D-EQPM
100
AcDbVertex
100
AcDbPolyFaceMeshVertex
 10
0.4062500149011611
 20
-0.1367034986615181
 30
0.7307281494140625
 70
   192
  0
VERTEX
  5
AF
330
AD
100
AcDbEntity
  8
3D-EQPM
100
AcDbVertex
100
AcDbPolyFaceMeshVertex
 10
0.4062500149011611
 20
-0.1367034986615181
 30
1.062499970197677
 70
   192
  0
VERTEX
  5
B0
330
AD
100
AcDbEntity
  8
3D-EQPM
100
AcDbVertex
100
AcDbPolyFaceMeshVertex
 10
0.3437500074505805
 20
-0.1367034986615181
 30
1.062499970197677
 70
   192
  0
VERTEX
  5
B1
330
AD
100
AcDbEntity
  8
3D-EQPM
100
AcDbVertex
100
AcDbPolyFaceMeshVertex
 10
0.3437500074505805
 20
-0.1367034986615181
 30
0.7307281494140625
 70
   192
  0
VERTEX
  5
B2
330
AD
100
AcDbEntity
  8
3D-EQPM
100
AcDbFaceRecord
 10
0.0
 20
0.0
 30
0.0
 70
   128
 71
     1
 72
     2
 73
     3
 74
     4
  0
SEQEND
  5
B3
330
AD
100
AcDbEntity
  8
3D-EQPM
  0
POLYLINE
  5
B4
330
80
100
AcDbEntity
  8
3D-EQPM
100
AcDbPolyFaceMesh
 66
     1
 10
0.0
 20
0.0
 30
0.0
 70
    64
 71
     4
 72
     1
1001
REVIT
1002
{
1070
     4
1000
26971
1002
}
1002
{
1070
     3
1000
6341
1002
}
  0
VERTEX
  5
B5
330
B4
100
AcDbEntity
  8
3D-EQPM
100
AcDbVertex
100
AcDbPolyFaceMeshVertex
 10
0.4062500149011611
 20
-0.1735373698174953
 30
0.7307281494140625
 70
   192
  0
VERTEX
  5
B6
330
B4
100
AcDbEntity
  8
3D-EQPM
100
AcDbVertex
100
AcDbPolyFaceMeshVertex
 10
0.4062500149011611
 20
-0.1367034986615181
 30
0.7307281494140625
 70
   192
  0
VERTEX
  5
B7
330
B4
100
AcDbEntity
  8
3D-EQPM
100
AcDbVertex
100
AcDbPolyFaceMeshVertex
 10
0.3437500074505805
 20
-0.1367034986615181
 30
0.7307281494140625
 70
   192
  0
VERTEX
  5
B8
330
B4
100
AcDbEntity
  8
3D-EQPM
100
AcDbVertex
100
AcDbPolyFaceMeshVertex
 10
0.3437500074505805
 20
-0.1735373698174953
 30
0.7307281494140625
 70
   192
  0
VERTEX
  5
B9
330
B4
100
AcDbEntity
  8
3D-EQPM
100
AcDbFaceRecord
 10
0.0
 20
0.0
 30
0.0
 70
   128
 71
     1
 72
     2
 73
     3
 74
     4
  0
SEQEND
  5
BA
330
B4
100
AcDbEntity
  8
3D-EQPM
  0
POLYLINE
  5
BB
330
80
100
AcDbEntity
  8
3D-EQPM
100
AcDbPolyFaceMesh
 66
     1
 10
0.0
 20
0.0
 30
0.0
 70
    64
 71
     4
 72
     1
1001
REVIT
1002
{
1070
     4
1000
26971
1002
}
1002
{
1070
     3
1000
6341
1002
}
  0
VERTEX
  5
BC
330
BB
100
AcDbEntity
  8
3D-EQPM
100
AcDbVertex
100
AcDbPolyFaceMeshVertex
 10
0.4062500149011611
 20
-0.1735373698174953
 30
0.6919789910316467
 70
   192
  0
VERTEX
  5
BD
330
BB
100
AcDbEntity
  8
3D-EQPM
100
AcDbVertex
100
AcDbPolyFaceMeshVertex
 10
0.4062500149011611
 20
-0.1735373698174953
 30
0.7307281494140625
 70
   192
  0
VERTEX
  5
BE
330
BB
100
AcDbEntity
  8
3D-EQPM
100
AcDbVertex
100
AcDbPolyFaceMeshVertex
 10
0.3437500074505805
 20
-0.1735373698174953
 30
0.7307281494140625
 70
   192
  0
VERTEX
  5
BF
330
BB
100
AcDbEntity
  8
3D-EQPM
100
AcDbVertex
100
AcDbPolyFaceMeshVertex
 10
0.3437500074505805
 20
-0.1735373698174953
 30
0.6919789910316467
 70
   192
  0
VERTEX
  5
C0
330
BB
100
AcDbEntity
  8
3D-EQPM
100
AcDbFaceRecord
 10
0.0
 20
0.0
 30
0.0
 70
   128
 71
     1
 72
     2
 73
     3
 74
     4
  0
SEQEND
  5
C1
330
BB
100
AcDbEntity
  8
3D-EQPM
  0
POLYLINE
  5
C2
330
80
100
AcDbEntity
  8
3D-EQPM
100
AcDbPolyFaceMesh
 66
     1
 10
0.0
 20
0.0
 30
0.0
 70
    64
 71
     4
 72
     1
1001
REVIT
1002
{
1070
     4
1000
26971
1002
}
1002
{
1070
     3
1000
6341
1002
}
  0
VERTEX
  5
C3
330
C2
100
AcDbEntity
  8
3D-EQPM
100
AcDbVertex
100
AcDbPolyFaceMeshVertex
 10
0.4062500149011611
 20
-0.0386697147041559
 30
0.5312499850988388
 70
   192
  0
VERTEX
  5
C4
330
C2
100
AcDbEntity
  8
3D-EQPM
100
AcDbVertex
100
AcDbPolyFaceMeshVertex
 10
0.4062500149011611
 20
-0.1735373698174953
 30
0.6919789910316467
 70
   192
  0
VERTEX
  5
C5
330
C2
100
AcDbEntity
  8
3D-EQPM
100
AcDbVertex
100
AcDbPolyFaceMeshVertex
 10
0.3437500074505805
 20
-0.1735373698174953
 30
0.6919789910316467
 70
   192
  0
VERTEX
  5
C6
330
C2
100
AcDbEntity
  8
3D-EQPM
100
AcDbVertex
100
AcDbPolyFaceMeshVertex
 10
0.3437500074505805
 20
-0.0386697147041559
 30
0.5312499850988388
 70
   192
  0
VERTEX
  5
C7
330
C2
100
AcDbEntity
  8
3D-EQPM
100
AcDbFaceRecord
 10
0.0
 20
0.0
 30
0.0
 70
   128
 71
     1
 72
     2
 73
     3
 74
     4
  0
SEQEND
  5
C8
330
C2
100
AcDbEntity
  8
3D-EQPM
  0
POLYLINE
  5
C9
330
80
100
AcDbEntity
  8
3D-EQPM
100
AcDbPolyFaceMesh
 66
     1
 10
0.0
 20
0.0
 30
0.0
 70
    64
 71
     4
 72
     1
1001
REVIT
1002
{
1070
     4
1000
26971
1002
}
1002
{
1070
     3
1000
6341
1002
}
  0
VERTEX
  5
CA
330
C9
100
AcDbEntity
  8
3D-EQPM
100
AcDbVertex
100
AcDbPolyFaceMeshVertex
 10
0.4062500149011611
 20
-0.2473843395709991
 30
0.5312499850988388
 70
   192
  0
VERTEX
  5
CB
330
C9
100
AcDbEntity
  8
3D-EQPM
100
AcDbVertex
100
AcDbPolyFaceMeshVertex
 10
0.4062500149011611
 20
-0.0386697147041559
 30
0.5312499850988388
 70
   192
  0
VERTEX
  5
CC
330
C9
100
AcDbEntity
  8
3D-EQPM
100
AcDbVertex
100
AcDbPolyFaceMeshVertex
 10
0.3437500074505805
 20
-0.0386697147041559
 30
0.5312499850988388
 70
   192
  0
VERTEX
  5
CD
330
C9
100
AcDbEntity
  8
3D-EQPM
100
AcDbVertex
100
AcDbPolyFaceMeshVertex
 10
0.3437500074505805
 20
-0.2473843395709991
 30
0.5312499850988388
 70
   192
  0
VERTEX
  5
CE
330
C9
100
AcDbEntity
  8
3D-EQPM
100
AcDbFaceRecord
 10
0.0
 20
0.0
 30
0.0
 70
   128
 71
     1
 72
     2
 73
     3
 74
     4
  0
SEQEND
  5
CF
330
C9
100
AcDbEntity
  8
3D-EQPM
  0
POLYLINE
  5
D0
330
80
100
AcDbEntity
  8
3D-EQPM
100
AcDbPolyFaceMesh
 66
     1
 10
0.0
 20
0.0
 30
0.0
 70
    64
 71
     4
 72
     1
1001
REVIT
1002
{
1070
     4
1000
26971
1002
}
1002
{
1070
     3
1000
6341
1002
}
  0
VERTEX
  5
D1
330
D0
100
AcDbEntity
  8
3D-EQPM
100
AcDbVertex
100
AcDbPolyFaceMeshVertex
 10
0.4062500149011611
 20
-0.2473843395709991
 30
0.470670998096466
 70
   192
  0
VERTEX
  5
D2
330
D0
100
AcDbEntity
  8
3D-EQPM
100
AcDbVertex
100
AcDbPolyFaceMeshVertex
 10
0.4062500149011611
 20
-0.2473843395709991
 30
0.5312499850988388
 70
   192
  0
VERTEX
  5
D3
330
D0
100
AcDbEntity
  8
3D-EQPM
100
AcDbVertex
100
AcDbPolyFaceMeshVertex
 10
0.3437500074505805
 20
-0.2473843395709991
 30
0.5312499850988388
 70
   192
  0
VERTEX
  5
D4
330
D0
100
AcDbEntity
  8
3D-EQPM
100
AcDbVertex
100
AcDbPolyFaceMeshVertex
 10
0.3437500074505805
 20
-0.2473843395709991
 30
0.470670998096466
 70
   192
  0
VERTEX
  5
D5
330
D0
100
AcDbEntity
  8
3D-EQPM
100
AcDbFaceRecord
 10
0.0
 20
0.0
 30
0.0
 70
   128
 71
     1
 72
     2
 73
     3
 74
     4
  0
SEQEND
  5
D6
330
D0
100
AcDbEntity
  8
3D-EQPM
  0
POLYLINE
  5
D7
330
80
100
AcDbEntity
  8
3D-EQPM
100
AcDbPolyFaceMesh
 66
     1
 10
0.0
 20
0.0
 30
0.0
 70
    64
 71
     4
 72
     1
1001
REVIT
1002
{
1070
     4
1000
26971
1002
}
1002
{
1070
     3
1000
6341
1002
}
  0
VERTEX
  5
D8
330
D7
100
AcDbEntity
  8
3D-EQPM
100
AcDbVertex
100
AcDbPolyFaceMeshVertex
 10
0.4062500149011611
 20
0.2473843395709991
 30
0.470670998096466
 70
   192
  0
VERTEX
  5
D9
330
D7
100
AcDbEntity
  8
3D-EQPM
100
AcDbVertex
100
AcDbPolyFaceMeshVertex
 10
0.4062500149011611
 20
-0.2473843395709991
 30
0.470670998096466
 70
   192
  0
VERTEX
  5
DA
330
D7
100
AcDbEntity
  8
3D-EQPM
100
AcDbVertex
100
AcDbPolyFaceMeshVertex
 10
0.3437500074505805
 20
-0.2473843395709991
 30
0.470670998096466
 70
   192
  0
VERTEX
  5
DB
330
D7
100
AcDbEntity
  8
3D-EQPM
100
AcDbVertex
100
AcDbPolyFaceMeshVertex
 10
0.3437500074505805
 20
0.2473843395709991
 30
0.470670998096466
 70
   192
  0
VERTEX
  5
DC
330
D7
100
AcDbEntity
  8
3D-EQPM
100
AcDbFaceRecord
 10
0.0
 20
0.0
 30
0.0
 70
   128
 71
     1
 72
     2
 73
     3
 74
     4
  0
SEQEND
  5
DD
330
D7
100
AcDbEntity
  8
3D-EQPM
  0
POLYLINE
  5
DE
330
80
100
AcDbEntity
  8
3D-EQPM
100
AcDbPolyFaceMesh
 66
     1
 10
0.0
 20
0.0
 30
0.0
 70
    64
 71
     4
 72
     1
1001
REVIT
1002
{
1070
     4
1000
26971
1002
}
1002
{
1070
     3
1000
6341
1002
}
  0
VERTEX
  5
DF
330
DE
100
AcDbEntity
  8
3D-EQPM
100
AcDbVertex
100
AcDbPolyFaceMeshVertex
 10
0.4062500149011611
 20
0.2473843395709991
 30
0.5312499850988388
 70
   192
  0
VERTEX
  5
E0
330
DE
100
AcDbEntity
  8
3D-EQPM
100
AcDbVertex
100
AcDbPolyFaceMeshVertex
 10
0.4062500149011611
 20
0.2473843395709991
 30
0.470670998096466
 70
   192
  0
VERTEX
  5
E1
330
DE
100
AcDbEntity
  8
3D-EQPM
100
AcDbVertex
100
AcDbPolyFaceMeshVertex
 10
0.3437500074505805
 20
0.2473843395709991
 30
0.470670998096466
 70
   192
  0
VERTEX
  5
E2
330
DE
100
AcDbEntity
  8
3D-EQPM
100
AcDbVertex
100
AcDbPolyFaceMeshVertex
 10
0.3437500074505805
 20
0.2473843395709991
 30
0.5312499850988388
 70
   192
  0
VERTEX
  5
E3
330
DE
100
AcDbEntity
  8
3D-EQPM
100
AcDbFaceRecord
 10
0.0
 20
0.0
 30
0.0
 70
   128
 71
     4
 72
     1
 73
     2
 74
     3
  0
SEQEND
  5
E4
330
DE
100
AcDbEntity
  8
3D-EQPM
  0
POLYLINE
  5
E5
330
80
100
AcDbEntity
  8
3D-EQPM
100
AcDbPolyFaceMesh
 66
     1
 10
0.0
 20
0.0
 30
0.0
 70
    64
 71
     4
 72
     1
1001
REVIT
1002
{
1070
     4
1000
26971
1002
}
1002
{
1070
     3
1000
6341
1002
}
  0
VERTEX
  5
E6
330
E5
100
AcDbEntity
  8
3D-EQPM
100
AcDbVertex
100
AcDbPolyFaceMeshVertex
 10
0.4062500149011611
 20
0.0386697147041559
 30
0.5312499850988388
 70
   192
  0
VERTEX
  5
E7
330
E5
100
AcDbEntity
  8
3D-EQPM
100
AcDbVertex
100
AcDbPolyFaceMeshVertex
 10
0.4062500149011611
 20
0.2473843395709991
 30
0.5312499850988388
 70
   192
  0
VERTEX
  5
E8
330
E5
100
AcDbEntity
  8
3D-EQPM
100
AcDbVertex
100
AcDbPolyFaceMeshVertex
 10
0.3437500074505805
 20
0.2473843395709991
 30
0.5312499850988388
 70
   192
  0
VERTEX
  5
E9
330
E5
100
AcDbEntity
  8
3D-EQPM
100
AcDbVertex
100
AcDbPolyFaceMeshVertex
 10
0.3437500074505805
 20
0.0386697147041559
 30
0.5312499850988388
 70
   192
  0
VERTEX
  5
EA
330
E5
100
AcDbEntity
  8
3D-EQPM
100
AcDbFaceRecord
 10
0.0
 20
0.0
 30
0.0
 70
   128
 71
     4
 72
     1
 73
     2
 74
     3
  0
SEQEND
  5
EB
330
E5
100
AcDbEntity
  8
3D-EQPM
  0
POLYLINE
  5
EC
330
80
100
AcDbEntity
  8
3D-EQPM
100
AcDbPolyFaceMesh
 66
     1
 10
0.0
 20
0.0
 30
0.0
 70
    64
 71
     4
 72
     1
1001
REVIT
1002
{
1070
     4
1000
26971
1002
}
1002
{
1070
     3
1000
6341
1002
}
  0
VERTEX
  5
ED
330
EC
100
AcDbEntity
  8
3D-EQPM
100
AcDbVertex
100
AcDbPolyFaceMeshVertex
 10
0.4062500149011611
 20
0.1735373698174953
 30
0.6919789910316467
 70
   192
  0
VERTEX
  5
EE
330
EC
100
AcDbEntity
  8
3D-EQPM
100
AcDbVertex
100
AcDbPolyFaceMeshVertex
 10
0.4062500149011611
 20
0.0386697147041559
 30
0.5312499850988388
 70
   192
  0
VERTEX
  5
EF
330
EC
100
AcDbEntity
  8
3D-EQPM
100
AcDbVertex
100
AcDbPolyFaceMeshVertex
 10
0.3437500074505805
 20
0.0386697147041559
 30
0.5312499850988388
 70
   192
  0
VERTEX
  5
F0
330
EC
100
AcDbEntity
  8
3D-EQPM
100
AcDbVertex
100
AcDbPolyFaceMeshVertex
 10
0.3437500074505805
 20
0.1735373698174953
 30
0.6919789910316467
 70
   192
  0
VERTEX
  5
F1
330
EC
100
AcDbEntity
  8
3D-EQPM
100
AcDbFaceRecord
 10
0.0
 20
0.0
 30
0.0
 70
   128
 71
     4
 72
     1
 73
     2
 74
     3
  0
SEQEND
  5
F2
330
EC
100
AcDbEntity
  8
3D-EQPM
  0
POLYLINE
  5
F3
330
80
100
AcDbEntity
  8
3D-EQPM
100
AcDbPolyFaceMesh
 66
     1
 10
0.0
 20
0.0
 30
0.0
 70
    64
 71
     4
 72
     1
1001
REVIT
1002
{
1070
     4
1000
26971
1002
}
1002
{
1070
     3
1000
6341
1002
}
  0
VERTEX
  5
F4
330
F3
100
AcDbEntity
  8
3D-EQPM
100
AcDbVertex
100
AcDbPolyFaceMeshVertex
 10
0.4062500149011611
 20
0.1735373698174953
 30
0.7307281494140625
 70
   192
  0
VERTEX
  5
F5
330
F3
100
AcDbEntity
  8
3D-EQPM
100
AcDbVertex
100
AcDbPolyFaceMeshVertex
 10
0.4062500149011611
 20
0.1735373698174953
 30
0.6919789910316467
 70
   192
  0
VERTEX
  5
F6
330
F3
100
AcDbEntity
  8
3D-EQPM
100
AcDbVertex
100
AcDbPolyFaceMeshVertex
 10
0.3437500074505805
 20
0.1735373698174953
 30
0.6919789910316467
 70
   192
  0
VERTEX
  5
F7
330
F3
100
AcDbEntity
  8
3D-EQPM
100
AcDbVertex
100
AcDbPolyFaceMeshVertex
 10
0.3437500074505805
 20
0.1735373698174953
 30
0.7307281494140625
 70
   192
  0
VERTEX
  5
F8
330
F3
100
AcDbEntity
  8
3D-EQPM
100
AcDbFaceRecord
 10
0.0
 20
0.0
 30
0.0
 70
   128
 71
     1
 72
     2
 73
     3
 74
     4
  0
SEQEND
  5
F9
330
F3
100
AcDbEntity
  8
3D-EQPM
  0
POLYLINE
  5
FA
330
80
100
AcDbEntity
  8
3D-EQPM
100
AcDbPolyFaceMesh
 66
     1
 10
0.0
 20
0.0
 30
0.0
 70
    64
 71
     4
 72
     1
1001
REVIT
1002
{
1070
     4
1000
26971
1002
}
1002
{
1070
     3
1000
6341
1002
}
  0
VERTEX
  5
FB
330
FA
100
AcDbEntity
  8
3D-EQPM
100
AcDbVertex
100
AcDbPolyFaceMeshVertex
 10
0.4062500149011611
 20
0.1367034986615181
 30
0.7307281494140625
 70
   192
  0
VERTEX
  5
FC
330
FA
100
AcDbEntity
  8
3D-EQPM
100
AcDbVertex
100
AcDbPolyFaceMeshVertex
 10
0.4062500149011611
 20
0.1735373698174953
 30
0.7307281494140625
 70
   192
  0
VERTEX
  5
FD
330
FA
100
AcDbEntity
  8
3D-EQPM
100
AcDbVertex
100
AcDbPolyFaceMeshVertex
 10
0.3437500074505805
 20
0.1735373698174953
 30
0.7307281494140625
 70
   192
  0
VERTEX
  5
FE
330
FA
100
AcDbEntity
  8
3D-EQPM
100
AcDbVertex
100
AcDbPolyFaceMeshVertex
 10
0.3437500074505805
 20
0.1367034986615181
 30
0.7307281494140625
 70
   192
  0
VERTEX
  5
FF
330
FA
100
AcDbEntity
  8
3D-EQPM
100
AcDbFaceRecord
 10
0.0
 20
0.0
 30
0.0
 70
   128
 71
     1
 72
     2
 73
     3
 74
     4
  0
SEQEND
  5
100
330
FA
100
AcDbEntity
  8
3D-EQPM
  0
POLYLINE
  5
101
330
80
100
AcDbEntity
  8
3D-EQPM
100
AcDbPolyFaceMesh
 66
     1
 10
0.0
 20
0.0
 30
0.0
 70
    64
 71
     4
 72
     1
1001
REVIT
1002
{
1070
     4
1000
26971
1002
}
1002
{
1070
     3
1000
6341
1002
}
  0
VERTEX
  5
102
330
101
100
AcDbEntity
  8
3D-EQPM
100
AcDbVertex
100
AcDbPolyFaceMeshVertex
 10
0.4062500149011611
 20
0.1367034986615181
 30
1.062499970197677
 70
   192
  0
VERTEX
  5
103
330
101
100
AcDbEntity
  8
3D-EQPM
100
AcDbVertex
100
AcDbPolyFaceMeshVertex
 10
0.4062500149011611
 20
0.1367034986615181
 30
0.7307281494140625
 70
   192
  0
VERTEX
  5
104
330
101
100
AcDbEntity
  8
3D-EQPM
100
AcDbVertex
100
AcDbPolyFaceMeshVertex
 10
0.3437500074505805
 20
0.1367034986615181
 30
0.7307281494140625
 70
   192
  0
VERTEX
  5
105
330
101
100
AcDbEntity
  8
3D-EQPM
100
AcDbVertex
100
AcDbPolyFaceMeshVertex
 10
0.3437500074505805
 20
0.1367034986615181
 30
1.062499970197677
 70
   192
  0
VERTEX
  5
106
330
101
100
AcDbEntity
  8
3D-EQPM
100
AcDbFaceRecord
 10
0.0
 20
0.0
 30
0.0
 70
   128
 71
     1
 72
     2
 73
     3
 74
     4
  0
SEQEND
  5
107
330
101
100
AcDbEntity
  8
3D-EQPM
  0
POLYLINE
  5
108
330
80
100
AcDbEntity
  8
3D-EQPM
100
AcDbPolyFaceMesh
 66
     1
 10
0.0
 20
0.0
 30
0.0
 70
    64
 71
     4
 72
     1
1001
REVIT
1002
{
1070
     4
1000
26971
1002
}
1002
{
1070
     3
1000
6341
1002
}
  0
VERTEX
  5
109
330
108
100
AcDbEntity
  8
3D-EQPM
100
AcDbVertex
100
AcDbPolyFaceMeshVertex
 10
0.4062500149011611
 20
-0.1367034986615181
 30
1.062499970197677
 70
   192
  0
VERTEX
  5
10A
330
108
100
AcDbEntity
  8
3D-EQPM
100
AcDbVertex
100
AcDbPolyFaceMeshVertex
 10
0.4062500149011611
 20
0.1367034986615181
 30
1.062499970197677
 70
   192
  0
VERTEX
  5
10B
330
108
100
AcDbEntity
  8
3D-EQPM
100
AcDbVertex
100
AcDbPolyFaceMeshVertex
 10
0.3437500074505805
 20
0.1367034986615181
 30
1.062499970197677
 70
   192
  0
VERTEX
  5
10C
330
108
100
AcDbEntity
  8
3D-EQPM
100
AcDbVertex
100
AcDbPolyFaceMeshVertex
 10
0.3437500074505805
 20
-0.1367034986615181
 30
1.062499970197677
 70
   192
  0
VERTEX
  5
10D
330
108
100
AcDbEntity
  8
3D-EQPM
100
AcDbFaceRecord
 10
0.0
 20
0.0
 30
0.0
 70
   128
 71
     1
 72
     2
 73
     3
 74
     4
  0
SEQEND
  5
10E
330
108
100
AcDbEntity
  8
3D-EQPM
  0
POLYLINE
  5
10F
330
80
100
AcDbEntity
  8
3D-EQPM
100
AcDbPolyFaceMesh
 66
     1
 10
0.0
 20
0.0
 30
0.0
 70
    64
 71
    14
 72
     7
1001
REVIT
1002
{
1070
     4
1000
26971
1002
}
1002
{
1070
     3
1000
6341
1002
}
  0
VERTEX
  5
110
330
10F
100
AcDbEntity
  8
3D-EQPM
100
AcDbVertex
100
AcDbPolyFaceMeshVertex
 10
-0.4062500149011611
 20
-0.1367034986615181
 30
1.062499970197677
 70
   192
  0
VERTEX
  5
111
330
10F
100
AcDbEntity
  8
3D-EQPM
100
AcDbVertex
100
AcDbPolyFaceMeshVertex
 10
-0.4062500149011611
 20
0.1367034986615181
 30
1.062499970197677
 70
   192
  0
VERTEX
  5
112
330
10F
100
AcDbEntity
  8
3D-EQPM
100
AcDbVertex
100
AcDbPolyFaceMeshVertex
 10
-0.4062500149011611
 20
0.1367034986615181
 30
0.7307281494140625
 70
   192
  0
VERTEX
  5
113
330
10F
100
AcDbEntity
  8
3D-EQPM
100
AcDbVertex
100
AcDbPolyFaceMeshVertex
 10
-0.4062500149011611
 20
0.1735373698174953
 30
0.7307281494140625
 70
   192
  0
VERTEX
  5
114
330
10F
100
AcDbEntity
  8
3D-EQPM
100
AcDbVertex
100
AcDbPolyFaceMeshVertex
 10
-0.4062500149011611
 20
0.1735373698174953
 30
0.6919789910316467
 70
   192
  0
VERTEX
  5
115
330
10F
100
AcDbEntity
  8
3D-EQPM
100
AcDbVertex
100
AcDbPolyFaceMeshVertex
 10
-0.4062500149011611
 20
0.0386697147041559
 30
0.5312499850988388
 70
   192
  0
VERTEX
  5
116
330
10F
100
AcDbEntity
  8
3D-EQPM
100
AcDbVertex
100
AcDbPolyFaceMeshVertex
 10
-0.4062500149011611
 20
0.2473843395709991
 30
0.5312499850988388
 70
   192
  0
VERTEX
  5
117
330
10F
100
AcDbEntity
  8
3D-EQPM
100
AcDbVertex
100
AcDbPolyFaceMeshVertex
 10
-0.4062500149011611
 20
0.2473843395709991
 30
0.470670998096466
 70
   192
  0
VERTEX
  5
118
330
10F
100
AcDbEntity
  8
3D-EQPM
100
AcDbVertex
100
AcDbPolyFaceMeshVertex
 10
-0.4062500149011611
 20
-0.2473843395709991
 30
0.470670998096466
 70
   192
  0
VERTEX
  5
119
330
10F
100
AcDbEntity
  8
3D-EQPM
100
AcDbVertex
100
AcDbPolyFaceMeshVertex
 10
-0.4062500149011611
 20
-0.2473843395709991
 30
0.5312499850988388
 70
   192
  0
VERTEX
  5
11A
330
10F
100
AcDbEntity
  8
3D-EQPM
100
AcDbVertex
100
AcDbPolyFaceMeshVertex
 10
-0.4062500149011611
 20
-0.0386697147041559
 30
0.5312499850988388
 70
   192
  0
VERTEX
  5
11B
330
10F
100
AcDbEntity
  8
3D-EQPM
100
AcDbVertex
100
AcDbPolyFaceMeshVertex
 10
-0.4062500149011611
 20
-0.1735373698174953
 30
0.6919789910316467
 70
   192
  0
VERTEX
  5
11C
330
10F
100
AcDbEntity
  8
3D-EQPM
100
AcDbVertex
100
AcDbPolyFaceMeshVertex
 10
-0.4062500149011611
 20
-0.1735373698174953
 30
0.7307281494140625
 70
   192
  0
VERTEX
  5
11D
330
10F
100
AcDbEntity
  8
3D-EQPM
100
AcDbVertex
100
AcDbPolyFaceMeshVertex
 10
-0.4062500149011611
 20
-0.1367034986615181
 30
0.7307281494140625
 70
   192
  0
VERTEX
  5
11E
330
10F
100
AcDbEntity
  8
3D-EQPM
100
AcDbFaceRecord
 10
0.0
 20
0.0
 30
0.0
 70
   128
 71
   -14
 72
    -6
 73
    11
 74
   -12
  0
VERTEX
  5
11F
330
10F
100
AcDbEntity
  8
3D-EQPM
100
AcDbFaceRecord
 10
0.0
 20
0.0
 30
0.0
 70
   128
 71
    13
 72
   -14
 73
    12
  0
VERTEX
  5
120
330
10F
100
AcDbEntity
  8
3D-EQPM
100
AcDbFaceRecord
 10
0.0
 20
0.0
 30
0.0
 70
   128
 71
     9
 72
    10
 73
   -11
 74
    -6
  0
VERTEX
  5
121
330
10F
100
AcDbEntity
  8
3D-EQPM
100
AcDbFaceRecord
 10
0.0
 20
0.0
 30
0.0
 70
   128
 71
    14
 72
     1
 73
    -2
  0
VERTEX
  5
122
330
10F
100
AcDbEntity
  8
3D-EQPM
100
AcDbFaceRecord
 10
0.0
 20
0.0
 30
0.0
 70
   128
 71
    -3
 72
    -6
 73
   -14
 74
     2
  0
VERTEX
  5
123
330
10F
100
AcDbEntity
  8
3D-EQPM
100
AcDbFaceRecord
 10
0.0
 20
0.0
 30
0.0
 70
   128
 71
     3
 72
     4
 73
     5
 74
    -6
  0
VERTEX
  5
124
330
10F
100
AcDbEntity
  8
3D-EQPM
100
AcDbFaceRecord
 10
0.0
 20
0.0
 30
0.0
 70
   128
 71
     6
 72
     7
 73
     8
 74
    -9
  0
SEQEND
  5
125
330
10F
100
AcDbEntity
  8
3D-EQPM
  0
POLYLINE
  5
126
330
80
100
AcDbEntity
  8
3D-EQPM
100
AcDbPolyFaceMesh
 66
     1
 10
0.0
 20
0.0
 30
0.0
 70
    64
 71
    14
 72
     7
1001
REVIT
1002
{
1070
     4
1000
26971
1002
}
1002
{
1070
     3
1000
6341
1002
}
  0
VERTEX
  5
127
330
126
100
AcDbEntity
  8
3D-EQPM
100
AcDbVertex
100
AcDbPolyFaceMeshVertex
 10
-0.3437500074505805
 20
-0.1367034986615181
 30
1.062499970197677
 70
   192
  0
VERTEX
  5
128
330
126
100
AcDbEntity
  8
3D-EQPM
100
AcDbVertex
100
AcDbPolyFaceMeshVertex
 10
-0.3437500074505805
 20
-0.1367034986615181
 30
0.7307281494140625
 70
   192
  0
VERTEX
  5
129
330
126
100
AcDbEntity
  8
3D-EQPM
100
AcDbVertex
100
AcDbPolyFaceMeshVertex
 10
-0.3437500074505805
 20
-0.1735373698174953
 30
0.7307281494140625
 70
   192
  0
VERTEX
  5
12A
330
126
100
AcDbEntity
  8
3D-EQPM
100
AcDbVertex
100
AcDbPolyFaceMeshVertex
 10
-0.3437500074505805
 20
-0.1735373698174953
 30
0.6919789910316467
 70
   192
  0
VERTEX
  5
12B
330
126
100
AcDbEntity
  8
3D-EQPM
100
AcDbVertex
100
AcDbPolyFaceMeshVertex
 10
-0.3437500074505805
 20
-0.0386697147041559
 30
0.5312499850988388
 70
   192
  0
VERTEX
  5
12C
330
126
100
AcDbEntity
  8
3D-EQPM
100
AcDbVertex
100
AcDbPolyFaceMeshVertex
 10
-0.3437500074505805
 20
-0.2473843395709991
 30
0.5312499850988388
 70
   192
  0
VERTEX
  5
12D
330
126
100
AcDbEntity
  8
3D-EQPM
100
AcDbVertex
100
AcDbPolyFaceMeshVertex
 10
-0.3437500074505805
 20
-0.2473843395709991
 30
0.470670998096466
 70
   192
  0
VERTEX
  5
12E
330
126
100
AcDbEntity
  8
3D-EQPM
100
AcDbVertex
100
AcDbPolyFaceMeshVertex
 10
-0.3437500074505805
 20
0.2473843395709991
 30
0.470670998096466
 70
   192
  0
VERTEX
  5
12F
330
126
100
AcDbEntity
  8
3D-EQPM
100
AcDbVertex
100
AcDbPolyFaceMeshVertex
 10
-0.3437500074505805
 20
0.2473843395709991
 30
0.5312499850988388
 70
   192
  0
VERTEX
  5
130
330
126
100
AcDbEntity
  8
3D-EQPM
100
AcDbVertex
100
AcDbPolyFaceMeshVertex
 10
-0.3437500074505805
 20
0.0386697147041559
 30
0.5312499850988388
 70
   192
  0
VERTEX
  5
131
330
126
100
AcDbEntity
  8
3D-EQPM
100
AcDbVertex
100
AcDbPolyFaceMeshVertex
 10
-0.3437500074505805
 20
0.1735373698174953
 30
0.6919789910316467
 70
   192
  0
VERTEX
  5
132
330
126
100
AcDbEntity
  8
3D-EQPM
100
AcDbVertex
100
AcDbPolyFaceMeshVertex
 10
-0.3437500074505805
 20
0.1735373698174953
 30
0.7307281494140625
 70
   192
  0
VERTEX
  5
133
330
126
100
AcDbEntity
  8
3D-EQPM
100
AcDbVertex
100
AcDbPolyFaceMeshVertex
 10
-0.3437500074505805
 20
0.1367034986615181
 30
0.7307281494140625
 70
   192
  0
VERTEX
  5
134
330
126
100
AcDbEntity
  8
3D-EQPM
100
AcDbVertex
100
AcDbPolyFaceMeshVertex
 10
-0.3437500074505805
 20
0.1367034986615181
 30
1.062499970197677
 70
   192
  0
VERTEX
  5
135
330
126
100
AcDbEntity
  8
3D-EQPM
100
AcDbFaceRecord
 10
0.0
 20
0.0
 30
0.0
 70
   128
 71
   -13
 72
    -5
 73
    10
 74
   -11
  0
VERTEX
  5
136
330
126
100
AcDbEntity
  8
3D-EQPM
100
AcDbFaceRecord
 10
0.0
 20
0.0
 30
0.0
 70
   128
 71
    12
 72
   -13
 73
    11
  0
VERTEX
  5
137
330
126
100
AcDbEntity
  8
3D-EQPM
100
AcDbFaceRecord
 10
0.0
 20
0.0
 30
0.0
 70
   128
 71
     8
 72
     9
 73
   -10
 74
    -5
  0
VERTEX
  5
138
330
126
100
AcDbEntity
  8
3D-EQPM
100
AcDbFaceRecord
 10
0.0
 20
0.0
 30
0.0
 70
   128
 71
    13
 72
    14
 73
    -1
  0
VERTEX
  5
139
330
126
100
AcDbEntity
  8
3D-EQPM
100
AcDbFaceRecord
 10
0.0
 20
0.0
 30
0.0
 70
   128
 71
    -2
 72
    -5
 73
   -13
 74
     1
  0
VERTEX
  5
13A
330
126
100
AcDbEntity
  8
3D-EQPM
100
AcDbFaceRecord
 10
0.0
 20
0.0
 30
0.0
 70
   128
 71
     2
 72
     3
 73
     4
 74
    -5
  0
VERTEX
  5
13B
330
126
100
AcDbEntity
  8
3D-EQPM
100
AcDbFaceRecord
 10
0.0
 20
0.0
 30
0.0
 70
   128
 71
     5
 72
     6
 73
     7
 74
    -8
  0
SEQEND
  5
13C
330
126
100
AcDbEntity
  8
3D-EQPM
  0
POLYLINE
  5
13D
330
80
100
AcDbEntity
  8
3D-EQPM
100
AcDbPolyFaceMesh
 66
     1
 10
0.0
 20
0.0
 30
0.0
 70
    64
 71
     4
 72
     1
1001
REVIT
1002
{
1070
     4
1000
26971
1002
}
1002
{
1070
     3
1000
6341
1002
}
  0
VERTEX
  5
13E
330
13D
100
AcDbEntity
  8
3D-EQPM
100
AcDbVertex
100
AcDbPolyFaceMeshVertex
 10
-0.4062500149011611
 20
0.1367034986615181
 30
1.062499970197677
 70
   192
  0
VERTEX
  5
13F
330
13D
100
AcDbEntity
  8
3D-EQPM
100
AcDbVertex
100
AcDbPolyFaceMeshVertex
 10
-0.4062500149011611
 20
-0.1367034986615181
 30
1.062499970197677
 70
   192
  0
VERTEX
  5
140
330
13D
100
AcDbEntity
  8
3D-EQPM
100
AcDbVertex
100
AcDbPolyFaceMeshVertex
 10
-0.3437500074505805
 20
-0.1367034986615181
 30
1.062499970197677
 70
   192
  0
VERTEX
  5
141
330
13D
100
AcDbEntity
  8
3D-EQPM
100
AcDbVertex
100
AcDbPolyFaceMeshVertex
 10
-0.3437500074505805
 20
0.1367034986615181
 30
1.062499970197677
 70
   192
  0
VERTEX
  5
142
330
13D
100
AcDbEntity
  8
3D-EQPM
100
AcDbFaceRecord
 10
0.0
 20
0.0
 30
0.0
 70
   128
 71
     1
 72
     2
 73
     3
 74
     4
  0
SEQEND
  5
143
330
13D
100
AcDbEntity
  8
3D-EQPM
  0
POLYLINE
  5
144
330
80
100
AcDbEntity
  8
3D-EQPM
100
AcDbPolyFaceMesh
 66
     1
 10
0.0
 20
0.0
 30
0.0
 70
    64
 71
     4
 72
     1
1001
REVIT
1002
{
1070
     4
1000
26971
1002
}
1002
{
1070
     3
1000
6341
1002
}
  0
VERTEX
  5
145
330
144
100
AcDbEntity
  8
3D-EQPM
100
AcDbVertex
100
AcDbPolyFaceMeshVertex
 10
-0.4062500149011611
 20
0.1367034986615181
 30
0.7307281494140625
 70
   192
  0
VERTEX
  5
146
330
144
100
AcDbEntity
  8
3D-EQPM
100
AcDbVertex
100
AcDbPolyFaceMeshVertex
 10
-0.4062500149011611
 20
0.1367034986615181
 30
1.062499970197677
 70
   192
  0
VERTEX
  5
147
330
144
100
AcDbEntity
  8
3D-EQPM
100
AcDbVertex
100
AcDbPolyFaceMeshVertex
 10
-0.3437500074505805
 20
0.1367034986615181
 30
1.062499970197677
 70
   192
  0
VERTEX
  5
148
330
144
100
AcDbEntity
  8
3D-EQPM
100
AcDbVertex
100
AcDbPolyFaceMeshVertex
 10
-0.3437500074505805
 20
0.1367034986615181
 30
0.7307281494140625
 70
   192
  0
VERTEX
  5
149
330
144
100
AcDbEntity
  8
3D-EQPM
100
AcDbFaceRecord
 10
0.0
 20
0.0
 30
0.0
 70
   128
 71
     4
 72
     1
 73
     2
 74
     3
  0
SEQEND
  5
14A
330
144
100
AcDbEntity
  8
3D-EQPM
  0
POLYLINE
  5
14B
330
80
100
AcDbEntity
  8
3D-EQPM
100
AcDbPolyFaceMesh
 66
     1
 10
0.0
 20
0.0
 30
0.0
 70
    64
 71
     4
 72
     1
1001
REVIT
1002
{
1070
     4
1000
26971
1002
}
1002
{
1070
     3
1000
6341
1002
}
  0
VERTEX
  5
14C
330
14B
100
AcDbEntity
  8
3D-EQPM
100
AcDbVertex
100
AcDbPolyFaceMeshVertex
 10
-0.4062500149011611
 20
0.1735373698174953
 30
0.7307281494140625
 70
   192
  0
VERTEX
  5
14D
330
14B
100
AcDbEntity
  8
3D-EQPM
100
AcDbVertex
100
AcDbPolyFaceMeshVertex
 10
-0.4062500149011611
 20
0.1367034986615181
 30
0.7307281494140625
 70
   192
  0
VERTEX
  5
14E
330
14B
100
AcDbEntity
  8
3D-EQPM
100
AcDbVertex
100
AcDbPolyFaceMeshVertex
 10
-0.3437500074505805
 20
0.1367034986615181
 30
0.7307281494140625
 70
   192
  0
VERTEX
  5
14F
330
14B
100
AcDbEntity
  8
3D-EQPM
100
AcDbVertex
100
AcDbPolyFaceMeshVertex
 10
-0.3437500074505805
 20
0.1735373698174953
 30
0.7307281494140625
 70
   192
  0
VERTEX
  5
150
330
14B
100
AcDbEntity
  8
3D-EQPM
100
AcDbFaceRecord
 10
0.0
 20
0.0
 30
0.0
 70
   128
 71
     1
 72
     2
 73
     3
 74
     4
  0
SEQEND
  5
151
330
14B
100
AcDbEntity
  8
3D-EQPM
  0
POLYLINE
  5
152
330
80
100
AcDbEntity
  8
3D-EQPM
100
AcDbPolyFaceMesh
 66
     1
 10
0.0
 20
0.0
 30
0.0
 70
    64
 71
     4
 72
     1
1001
REVIT
1002
{
1070
     4
1000
26971
1002
}
1002
{
1070
     3
1000
6341
1002
}
  0
VERTEX
  5
153
330
152
100
AcDbEntity
  8
3D-EQPM
100
AcDbVertex
100
AcDbPolyFaceMeshVertex
 10
-0.4062500149011611
 20
0.1735373698174953
 30
0.6919789910316467
 70
   192
  0
VERTEX
  5
154
330
152
100
AcDbEntity
  8
3D-EQPM
100
AcDbVertex
100
AcDbPolyFaceMeshVertex
 10
-0.4062500149011611
 20
0.1735373698174953
 30
0.7307281494140625
 70
   192
  0
VERTEX
  5
155
330
152
100
AcDbEntity
  8
3D-EQPM
100
AcDbVertex
100
AcDbPolyFaceMeshVertex
 10
-0.3437500074505805
 20
0.1735373698174953
 30
0.7307281494140625
 70
   192
  0
VERTEX
  5
156
330
152
100
AcDbEntity
  8
3D-EQPM
100
AcDbVertex
100
AcDbPolyFaceMeshVertex
 10
-0.3437500074505805
 20
0.1735373698174953
 30
0.6919789910316467
 70
   192
  0
VERTEX
  5
157
330
152
100
AcDbEntity
  8
3D-EQPM
100
AcDbFaceRecord
 10
0.0
 20
0.0
 30
0.0
 70
   128
 71
     4
 72
     1
 73
     2
 74
     3
  0
SEQEND
  5
158
330
152
100
AcDbEntity
  8
3D-EQPM
  0
POLYLINE
  5
159
330
80
100
AcDbEntity
  8
3D-EQPM
100
AcDbPolyFaceMesh
 66
     1
 10
0.0
 20
0.0
 30
0.0
 70
    64
 71
     4
 72
     1
1001
REVIT
1002
{
1070
     4
1000
26971
1002
}
1002
{
1070
     3
1000
6341
1002
}
  0
VERTEX
  5
15A
330
159
100
AcDbEntity
  8
3D-EQPM
100
AcDbVertex
100
AcDbPolyFaceMeshVertex
 10
-0.4062500149011611
 20
0.0386697147041559
 30
0.5312499850988388
 70
   192
  0
VERTEX
  5
15B
330
159
100
AcDbEntity
  8
3D-EQPM
100
AcDbVertex
100
AcDbPolyFaceMeshVertex
 10
-0.4062500149011611
 20
0.1735373698174953
 30
0.6919789910316467
 70
   192
  0
VERTEX
  5
15C
330
159
100
AcDbEntity
  8
3D-EQPM
100
AcDbVertex
100
AcDbPolyFaceMeshVertex
 10
-0.3437500074505805
 20
0.1735373698174953
 30
0.6919789910316467
 70
   192
  0
VERTEX
  5
15D
330
159
100
AcDbEntity
  8
3D-EQPM
100
AcDbVertex
100
AcDbPolyFaceMeshVertex
 10
-0.3437500074505805
 20
0.0386697147041559
 30
0.5312499850988388
 70
   192
  0
VERTEX
  5
15E
330
159
100
AcDbEntity
  8
3D-EQPM
100
AcDbFaceRecord
 10
0.0
 20
0.0
 30
0.0
 70
   128
 71
     4
 72
     1
 73
     2
 74
     3
  0
SEQEND
  5
15F
330
159
100
AcDbEntity
  8
3D-EQPM
  0
POLYLINE
  5
160
330
80
100
AcDbEntity
  8
3D-EQPM
100
AcDbPolyFaceMesh
 66
     1
 10
0.0
 20
0.0
 30
0.0
 70
    64
 71
     4
 72
     1
1001
REVIT
1002
{
1070
     4
1000
26971
1002
}
1002
{
1070
     3
1000
6341
1002
}
  0
VERTEX
  5
161
330
160
100
AcDbEntity
  8
3D-EQPM
100
AcDbVertex
100
AcDbPolyFaceMeshVertex
 10
-0.4062500149011611
 20
0.2473843395709991
 30
0.5312499850988388
 70
   192
  0
VERTEX
  5
162
330
160
100
AcDbEntity
  8
3D-EQPM
100
AcDbVertex
100
AcDbPolyFaceMeshVertex
 10
-0.4062500149011611
 20
0.0386697147041559
 30
0.5312499850988388
 70
   192
  0
VERTEX
  5
163
330
160
100
AcDbEntity
  8
3D-EQPM
100
AcDbVertex
100
AcDbPolyFaceMeshVertex
 10
-0.3437500074505805
 20
0.0386697147041559
 30
0.5312499850988388
 70
   192
  0
VERTEX
  5
164
330
160
100
AcDbEntity
  8
3D-EQPM
100
AcDbVertex
100
AcDbPolyFaceMeshVertex
 10
-0.3437500074505805
 20
0.2473843395709991
 30
0.5312499850988388
 70
   192
  0
VERTEX
  5
165
330
160
100
AcDbEntity
  8
3D-EQPM
100
AcDbFaceRecord
 10
0.0
 20
0.0
 30
0.0
 70
   128
 71
     1
 72
     2
 73
     3
 74
     4
  0
SEQEND
  5
166
330
160
100
AcDbEntity
  8
3D-EQPM
  0
POLYLINE
  5
167
330
80
100
AcDbEntity
  8
3D-EQPM
100
AcDbPolyFaceMesh
 66
     1
 10
0.0
 20
0.0
 30
0.0
 70
    64
 71
     4
 72
     1
1001
REVIT
1002
{
1070
     4
1000
26971
1002
}
1002
{
1070
     3
1000
6341
1002
}
  0
VERTEX
  5
168
330
167
100
AcDbEntity
  8
3D-EQPM
100
AcDbVertex
100
AcDbPolyFaceMeshVertex
 10
-0.4062500149011611
 20
0.2473843395709991
 30
0.470670998096466
 70
   192
  0
VERTEX
  5
169
330
167
100
AcDbEntity
  8
3D-EQPM
100
AcDbVertex
100
AcDbPolyFaceMeshVertex
 10
-0.4062500149011611
 20
0.2473843395709991
 30
0.5312499850988388
 70
   192
  0
VERTEX
  5
16A
330
167
100
AcDbEntity
  8
3D-EQPM
100
AcDbVertex
100
AcDbPolyFaceMeshVertex
 10
-0.3437500074505805
 20
0.2473843395709991
 30
0.5312499850988388
 70
   192
  0
VERTEX
  5
16B
330
167
100
AcDbEntity
  8
3D-EQPM
100
AcDbVertex
100
AcDbPolyFaceMeshVertex
 10
-0.3437500074505805
 20
0.2473843395709991
 30
0.470670998096466
 70
   192
  0
VERTEX
  5
16C
330
167
100
AcDbEntity
  8
3D-EQPM
100
AcDbFaceRecord
 10
0.0
 20
0.0
 30
0.0
 70
   128
 71
     4
 72
     1
 73
     2
 74
     3
  0
SEQEND
  5
16D
330
167
100
AcDbEntity
  8
3D-EQPM
  0
POLYLINE
  5
16E
330
80
100
AcDbEntity
  8
3D-EQPM
100
AcDbPolyFaceMesh
 66
     1
 10
0.0
 20
0.0
 30
0.0
 70
    64
 71
     4
 72
     1
1001
REVIT
1002
{
1070
     4
1000
26971
1002
}
1002
{
1070
     3
1000
6341
1002
}
  0
VERTEX
  5
16F
330
16E
100
AcDbEntity
  8
3D-EQPM
100
AcDbVertex
100
AcDbPolyFaceMeshVertex
 10
-0.4062500149011611
 20
-0.2473843395709991
 30
0.470670998096466
 70
   192
  0
VERTEX
  5
170
330
16E
100
AcDbEntity
  8
3D-EQPM
100
AcDbVertex
100
AcDbPolyFaceMeshVertex
 10
-0.4062500149011611
 20
0.2473843395709991
 30
0.470670998096466
 70
   192
  0
VERTEX
  5
171
330
16E
100
AcDbEntity
  8
3D-EQPM
100
AcDbVertex
100
AcDbPolyFaceMeshVertex
 10
-0.3437500074505805
 20
0.2473843395709991
 30
0.470670998096466
 70
   192
  0
VERTEX
  5
172
330
16E
100
AcDbEntity
  8
3D-EQPM
100
AcDbVertex
100
AcDbPolyFaceMeshVertex
 10
-0.3437500074505805
 20
-0.2473843395709991
 30
0.470670998096466
 70
   192
  0
VERTEX
  5
173
330
16E
100
AcDbEntity
  8
3D-EQPM
100
AcDbFaceRecord
 10
0.0
 20
0.0
 30
0.0
 70
   128
 71
     1
 72
     2
 73
     3
 74
     4
  0
SEQEND
  5
174
330
16E
100
AcDbEntity
  8
3D-EQPM
  0
POLYLINE
  5
175
330
80
100
AcDbEntity
  8
3D-EQPM
100
AcDbPolyFaceMesh
 66
     1
 10
0.0
 20
0.0
 30
0.0
 70
    64
 71
     4
 72
     1
1001
REVIT
1002
{
1070
     4
1000
26971
1002
}
1002
{
1070
     3
1000
6341
1002
}
  0
VERTEX
  5
176
330
175
100
AcDbEntity
  8
3D-EQPM
100
AcDbVertex
100
AcDbPolyFaceMeshVertex
 10
-0.4062500149011611
 20
-0.2473843395709991
 30
0.5312499850988388
 70
   192
  0
VERTEX
  5
177
330
175
100
AcDbEntity
  8
3D-EQPM
100
AcDbVertex
100
AcDbPolyFaceMeshVertex
 10
-0.4062500149011611
 20
-0.2473843395709991
 30
0.470670998096466
 70
   192
  0
VERTEX
  5
178
330
175
100
AcDbEntity
  8
3D-EQPM
100
AcDbVertex
100
AcDbPolyFaceMeshVertex
 10
-0.3437500074505805
 20
-0.2473843395709991
 30
0.470670998096466
 70
   192
  0
VERTEX
  5
179
330
175
100
AcDbEntity
  8
3D-EQPM
100
AcDbVertex
100
AcDbPolyFaceMeshVertex
 10
-0.3437500074505805
 20
-0.2473843395709991
 30
0.5312499850988388
 70
   192
  0
VERTEX
  5
17A
330
175
100
AcDbEntity
  8
3D-EQPM
100
AcDbFaceRecord
 10
0.0
 20
0.0
 30
0.0
 70
   128
 71
     1
 72
     2
 73
     3
 74
     4
  0
SEQEND
  5
17B
330
175
100
AcDbEntity
  8
3D-EQPM
  0
POLYLINE
  5
17C
330
80
100
AcDbEntity
  8
3D-EQPM
100
AcDbPolyFaceMesh
 66
     1
 10
0.0
 20
0.0
 30
0.0
 70
    64
 71
     4
 72
     1
1001
REVIT
1002
{
1070
     4
1000
26971
1002
}
1002
{
1070
     3
1000
6341
1002
}
  0
VERTEX
  5
17D
330
17C
100
AcDbEntity
  8
3D-EQPM
100
AcDbVertex
100
AcDbPolyFaceMeshVertex
 10
-0.4062500149011611
 20
-0.0386697147041559
 30
0.5312499850988388
 70
   192
  0
VERTEX
  5
17E
330
17C
100
AcDbEntity
  8
3D-EQPM
100
AcDbVertex
100
AcDbPolyFaceMeshVertex
 10
-0.4062500149011611
 20
-0.2473843395709991
 30
0.5312499850988388
 70
   192
  0
VERTEX
  5
17F
330
17C
100
AcDbEntity
  8
3D-EQPM
100
AcDbVertex
100
AcDbPolyFaceMeshVertex
 10
-0.3437500074505805
 20
-0.2473843395709991
 30
0.5312499850988388
 70
   192
  0
VERTEX
  5
180
330
17C
100
AcDbEntity
  8
3D-EQPM
100
AcDbVertex
100
AcDbPolyFaceMeshVertex
 10
-0.3437500074505805
 20
-0.0386697147041559
 30
0.5312499850988388
 70
   192
  0
VERTEX
  5
181
330
17C
100
AcDbEntity
  8
3D-EQPM
100
AcDbFaceRecord
 10
0.0
 20
0.0
 30
0.0
 70
   128
 71
     4
 72
     1
 73
     2
 74
     3
  0
SEQEND
  5
182
330
17C
100
AcDbEntity
  8
3D-EQPM
  0
POLYLINE
  5
183
330
80
100
AcDbEntity
  8
3D-EQPM
100
AcDbPolyFaceMesh
 66
     1
 10
0.0
 20
0.0
 30
0.0
 70
    64
 71
     4
 72
     1
1001
REVIT
1002
{
1070
     4
1000
26971
1002
}
1002
{
1070
     3
1000
6341
1002
}
  0
VERTEX
  5
184
330
183
100
AcDbEntity
  8
3D-EQPM
100
AcDbVertex
100
AcDbPolyFaceMeshVertex
 10
-0.4062500149011611
 20
-0.1735373698174953
 30
0.6919789910316467
 70
   192
  0
VERTEX
  5
185
330
183
100
AcDbEntity
  8
3D-EQPM
100
AcDbVertex
100
AcDbPolyFaceMeshVertex
 10
-0.4062500149011611
 20
-0.0386697147041559
 30
0.5312499850988388
 70
   192
  0
VERTEX
  5
186
330
183
100
AcDbEntity
  8
3D-EQPM
100
AcDbVertex
100
AcDbPolyFaceMeshVertex
 10
-0.3437500074505805
 20
-0.0386697147041559
 30
0.5312499850988388
 70
   192
  0
VERTEX
  5
187
330
183
100
AcDbEntity
  8
3D-EQPM
100
AcDbVertex
100
AcDbPolyFaceMeshVertex
 10
-0.3437500074505805
 20
-0.1735373698174953
 30
0.6919789910316467
 70
   192
  0
VERTEX
  5
188
330
183
100
AcDbEntity
  8
3D-EQPM
100
AcDbFaceRecord
 10
0.0
 20
0.0
 30
0.0
 70
   128
 71
     1
 72
     2
 73
     3
 74
     4
  0
SEQEND
  5
189
330
183
100
AcDbEntity
  8
3D-EQPM
  0
POLYLINE
  5
18A
330
80
100
AcDbEntity
  8
3D-EQPM
100
AcDbPolyFaceMesh
 66
     1
 10
0.0
 20
0.0
 30
0.0
 70
    64
 71
     4
 72
     1
1001
REVIT
1002
{
1070
     4
1000
26971
1002
}
1002
{
1070
     3
1000
6341
1002
}
  0
VERTEX
  5
18B
330
18A
100
AcDbEntity
  8
3D-EQPM
100
AcDbVertex
100
AcDbPolyFaceMeshVertex
 10
-0.4062500149011611
 20
-0.1735373698174953
 30
0.7307281494140625
 70
   192
  0
VERTEX
  5
18C
330
18A
100
AcDbEntity
  8
3D-EQPM
100
AcDbVertex
100
AcDbPolyFaceMeshVertex
 10
-0.4062500149011611
 20
-0.1735373698174953
 30
0.6919789910316467
 70
   192
  0
VERTEX
  5
18D
330
18A
100
AcDbEntity
  8
3D-EQPM
100
AcDbVertex
100
AcDbPolyFaceMeshVertex
 10
-0.3437500074505805
 20
-0.1735373698174953
 30
0.6919789910316467
 70
   192
  0
VERTEX
  5
18E
330
18A
100
AcDbEntity
  8
3D-EQPM
100
AcDbVertex
100
AcDbPolyFaceMeshVertex
 10
-0.3437500074505805
 20
-0.1735373698174953
 30
0.7307281494140625
 70
   192
  0
VERTEX
  5
18F
330
18A
100
AcDbEntity
  8
3D-EQPM
100
AcDbFaceRecord
 10
0.0
 20
0.0
 30
0.0
 70
   128
 71
     1
 72
     2
 73
     3
 74
     4
  0
SEQEND
  5
190
330
18A
100
AcDbEntity
  8
3D-EQPM
  0
POLYLINE
  5
191
330
80
100
AcDbEntity
  8
3D-EQPM
100
AcDbPolyFaceMesh
 66
     1
 10
0.0
 20
0.0
 30
0.0
 70
    64
 71
     4
 72
     1
1001
REVIT
1002
{
1070
     4
1000
26971
1002
}
1002
{
1070
     3
1000
6341
1002
}
  0
VERTEX
  5
192
330
191
100
AcDbEntity
  8
3D-EQPM
100
AcDbVertex
100
AcDbPolyFaceMeshVertex
 10
-0.4062500149011611
 20
-0.1367034986615181
 30
0.7307281494140625
 70
   192
  0
VERTEX
  5
193
330
191
100
AcDbEntity
  8
3D-EQPM
100
AcDbVertex
100
AcDbPolyFaceMeshVertex
 10
-0.4062500149011611
 20
-0.1735373698174953
 30
0.7307281494140625
 70
   192
  0
VERTEX
  5
194
330
191
100
AcDbEntity
  8
3D-EQPM
100
AcDbVertex
100
AcDbPolyFaceMeshVertex
 10
-0.3437500074505805
 20
-0.1735373698174953
 30
0.7307281494140625
 70
   192
  0
VERTEX
  5
195
330
191
100
AcDbEntity
  8
3D-EQPM
100
AcDbVertex
100
AcDbPolyFaceMeshVertex
 10
-0.3437500074505805
 20
-0.1367034986615181
 30
0.7307281494140625
 70
   192
  0
VERTEX
  5
196
330
191
100
AcDbEntity
  8
3D-EQPM
100
AcDbFaceRecord
 10
0.0
 20
0.0
 30
0.0
 70
   128
 71
     4
 72
     1
 73
     2
 74
     3
  0
SEQEND
  5
197
330
191
100
AcDbEntity
  8
3D-EQPM
  0
POLYLINE
  5
198
330
80
100
AcDbEntity
  8
3D-EQPM
100
AcDbPolyFaceMesh
 66
     1
 10
0.0
 20
0.0
 30
0.0
 70
    64
 71
     4
 72
     1
1001
REVIT
1002
{
1070
     4
1000
26971
1002
}
1002
{
1070
     3
1000
6341
1002
}
  0
VERTEX
  5
199
330
198
100
AcDbEntity
  8
3D-EQPM
100
AcDbVertex
100
AcDbPolyFaceMeshVertex
 10
-0.4062500149011611
 20
-0.1367034986615181
 30
1.062499970197677
 70
   192
  0
VERTEX
  5
19A
330
198
100
AcDbEntity
  8
3D-EQPM
100
AcDbVertex
100
AcDbPolyFaceMeshVertex
 10
-0.4062500149011611
 20
-0.1367034986615181
 30
0.7307281494140625
 70
   192
  0
VERTEX
  5
19B
330
198
100
AcDbEntity
  8
3D-EQPM
100
AcDbVertex
100
AcDbPolyFaceMeshVertex
 10
-0.3437500074505805
 20
-0.1367034986615181
 30
0.7307281494140625
 70
   192
  0
VERTEX
  5
19C
330
198
100
AcDbEntity
  8
3D-EQPM
100
AcDbVertex
100
AcDbPolyFaceMeshVertex
 10
-0.3437500074505805
 20
-0.1367034986615181
 30
1.062499970197677
 70
   192
  0
VERTEX
  5
19D
330
198
100
AcDbEntity
  8
3D-EQPM
100
AcDbFaceRecord
 10
0.0
 20
0.0
 30
0.0
 70
   128
 71
     1
 72
     2
 73
     3
 74
     4
  0
SEQEND
  5
19E
330
198
100
AcDbEntity
  8
3D-EQPM
  0
POLYLINE
  5
19F
330
80
100
AcDbEntity
  8
3D-EQPM
100
AcDbPolyFaceMesh
 66
     1
 10
0.0
 20
0.0
 30
0.0
 70
    64
 71
    18
 72
     9
1001
REVIT
1002
{
1070
     4
1000
2544
1002
}
1002
{
1070
     3
1000
6341
1002
}
  0
VERTEX
  5
1A0
330
19F
100
AcDbEntity
  8
3D-EQPM
100
AcDbVertex
100
AcDbPolyFaceMeshVertex
 10
0.9062500298023222
 20
-0.5781249850988388
 30
0.1659228466451168
 70
   192
  0
VERTEX
  5
1A1
330
19F
100
AcDbEntity
  8
3D-EQPM
100
AcDbVertex
100
AcDbPolyFaceMeshVertex
 10
0.9062500298023222
 20
-0.5781249850988388
 30
0.0000000000011829
 70
   192
  0
VERTEX
  5
1A2
330
19F
100
AcDbEntity
  8
3D-EQPM
100
AcDbVertex
100
AcDbPolyFaceMeshVertex
 10
1.000000029802322
 20
-0.5781249850988388
 30
0.0000000000011826
 70
   192
  0
VERTEX
  5
1A3
330
19F
100
AcDbEntity
  8
3D-EQPM
100
AcDbVertex
100
AcDbPolyFaceMeshVertex
 10
1.000000029802322
 20
-0.5781249850988388
 30
0.2327940836548805
 70
   192
  0
VERTEX
  5
1A4
330
19F
100
AcDbEntity
  8
3D-EQPM
100
AcDbVertex
100
AcDbPolyFaceMeshVertex
 10
0.5145558714866638
 20
-0.5781249850988388
 30
0.470670998096466
 70
   192
  0
VERTEX
  5
1A5
330
19F
100
AcDbEntity
  8
3D-EQPM
100
AcDbVertex
100
AcDbPolyFaceMeshVertex
 10
0.3091552108526229
 20
-0.5781249850988388
 30
0.470670998096466
 70
   192
  0
VERTEX
  5
1A6
330
19F
100
AcDbEntity
  8
3D-EQPM
100
AcDbVertex
100
AcDbPolyFaceMeshVertex
 10
0.3091552108526229
 20
-0.5781249850988388
 30
0.5312499850988388
 70
   192
  0
VERTEX
  5
1A7
330
19F
100
AcDbEntity
  8
3D-EQPM
100
AcDbVertex
100
AcDbPolyFaceMeshVertex
 10
-0.3091552108526229
 20
-0.5781249850988388
 30
0.5312499850988388
 70
   192
  0
VERTEX
  5
1A8
330
19F
100
AcDbEntity
  8
3D-EQPM
100
AcDbVertex
100
AcDbPolyFaceMeshVertex
 10
-0.3091552108526229
 20
-0.5781249850988388
 30
0.470670998096466
 70
   192
  0
VERTEX
  5
1A9
330
19F
100
AcDbEntity
  8
3D-EQPM
100
AcDbVertex
100
AcDbPolyFaceMeshVertex
 10
-0.5145558714866638
 20
-0.5781249850988388
 30
0.470670998096466
 70
   192
  0
VERTEX
  5
1AA
330
19F
100
AcDbEntity
  8
3D-EQPM
100
AcDbVertex
100
AcDbPolyFaceMeshVertex
 10
-1.000000029802322
 20
-0.5781249850988388
 30
0.2327940836548805
 70
   192
  0
VERTEX
  5
1AB
330
19F
100
AcDbEntity
  8
3D-EQPM
100
AcDbVertex
100
AcDbPolyFaceMeshVertex
 10
-1.000000029802322
 20
-0.5781249850988388
 30
0.000000000001189
 70
   192
  0
VERTEX
  5
1AC
330
19F
100
AcDbEntity
  8
3D-EQPM
100
AcDbVertex
100
AcDbPolyFaceMeshVertex
 10
-0.9062500298023222
 20
-0.5781249850988388
 30
0.0000000000011887
 70
   192
  0
VERTEX
  5
1AD
330
19F
100
AcDbEntity
  8
3D-EQPM
100
AcDbVertex
100
AcDbPolyFaceMeshVertex
 10
-0.9062500298023222
 20
-0.5781249850988388
 30
0.1659228466451168
 70
   192
  0
VERTEX
  5
1AE
330
19F
100
AcDbEntity
  8
3D-EQPM
100
AcDbVertex
100
AcDbPolyFaceMeshVertex
 10
-0.2544677183032035
 20
-0.5781249850988388
 30
0.3903494775295257
 70
   192
  0
VERTEX
  5
1AF
330
19F
100
AcDbEntity
  8
3D-EQPM
100
AcDbVertex
100
AcDbPolyFaceMeshVertex
 10
-0.2544677183032035
 20
-0.5781249850988388
 30
0.4374999850988388
 70
   192
  0
VERTEX
  5
1B0
330
19F
100
AcDbEntity
  8
3D-EQPM
100
AcDbVertex
100
AcDbPolyFaceMeshVertex
 10
0.2544677183032035
 20
-0.5781249850988388
 30
0.4374999850988388
 70
   192
  0
VERTEX
  5
1B1
330
19F
100
AcDbEntity
  8
3D-EQPM
100
AcDbVertex
100
AcDbPolyFaceMeshVertex
 10
0.2544677183032035
 20
-0.5781249850988388
 30
0.3903494775295257
 70
   192
  0
VERTEX
  5
1B2
330
19F
100
AcDbEntity
  8
3D-EQPM
100
AcDbFaceRecord
 10
0.0
 20
0.0
 30
0.0
 70
   128
 71
   -16
 72
     8
 73
    -9
 74
    15
  0
VERTEX
  5
1B3
330
19F
100
AcDbEntity
  8
3D-EQPM
100
AcDbFaceRecord
 10
0.0
 20
0.0
 30
0.0
 70
   128
 71
   -15
 72
     9
 73
   -10
 74
    14
  0
VERTEX
  5
1B4
330
19F
100
AcDbEntity
  8
3D-EQPM
100
AcDbFaceRecord
 10
0.0
 20
0.0
 30
0.0
 70
   128
 71
    -8
 72
    16
 73
   -17
 74
     7
  0
VERTEX
  5
1B5
330
19F
100
AcDbEntity
  8
3D-EQPM
100
AcDbFaceRecord
 10
0.0
 20
0.0
 30
0.0
 70
   128
 71
    17
 72
   -18
 73
     6
 74
    -7
  0
VERTEX
  5
1B6
330
19F
100
AcDbEntity
  8
3D-EQPM
100
AcDbFaceRecord
 10
0.0
 20
0.0
 30
0.0
 70
   128
 71
     5
 72
    -6
 73
    18
 74
    -1
  0
VERTEX
  5
1B7
330
19F
100
AcDbEntity
  8
3D-EQPM
100
AcDbFaceRecord
 10
0.0
 20
0.0
 30
0.0
 70
   128
 71
   -14
 72
    11
 73
    12
 74
    13
  0
VERTEX
  5
1B8
330
19F
100
AcDbEntity
  8
3D-EQPM
100
AcDbFaceRecord
 10
0.0
 20
0.0
 30
0.0
 70
   128
 71
    -5
 72
    -1
 73
     4
  0
VERTEX
  5
1B9
330
19F
100
AcDbEntity
  8
3D-EQPM
100
AcDbFaceRecord
 10
0.0
 20
0.0
 30
0.0
 70
   128
 71
     1
 72
     2
 73
     3
 74
    -4
  0
VERTEX
  5
1BA
330
19F
100
AcDbEntity
  8
3D-EQPM
100
AcDbFaceRecord
 10
0.0
 20
0.0
 30
0.0
 70
   128
 71
   -14
 72
    10
 73
   -11
  0
SEQEND
  5
1BB
330
19F
100
AcDbEntity
  8
3D-EQPM
  0
POLYLINE
  5
1BC
330
80
100
AcDbEntity
  8
3D-EQPM
100
AcDbPolyFaceMesh
 66
     1
 10
0.0
 20
0.0
 30
0.0
 70
    64
 71
    18
 72
     9
1001
REVIT
1002
{
1070
     4
1000
2544
1002
}
1002
{
1070
     3
1000
6341
1002
}
  0
VERTEX
  5
1BD
330
1BC
100
AcDbEntity
  8
3D-EQPM
100
AcDbVertex
100
AcDbPolyFaceMeshVertex
 10
0.9062500298023222
 20
0.5781249850988388
 30
0.1659228466451168
 70
   192
  0
VERTEX
  5
1BE
330
1BC
100
AcDbEntity
  8
3D-EQPM
100
AcDbVertex
100
AcDbPolyFaceMeshVertex
 10
0.2544677183032035
 20
0.5781249850988388
 30
0.3903494775295257
 70
   192
  0
VERTEX
  5
1BF
330
1BC
100
AcDbEntity
  8
3D-EQPM
100
AcDbVertex
100
AcDbPolyFaceMeshVertex
 10
0.2544677183032035
 20
0.5781249850988388
 30
0.4374999850988388
 70
   192
  0
VERTEX
  5
1C0
330
1BC
100
AcDbEntity
  8
3D-EQPM
100
AcDbVertex
100
AcDbPolyFaceMeshVertex
 10
-0.2544677183032035
 20
0.5781249850988388
 30
0.4374999850988388
 70
   192
  0
VERTEX
  5
1C1
330
1BC
100
AcDbEntity
  8
3D-EQPM
100
AcDbVertex
100
AcDbPolyFaceMeshVertex
 10
-0.2544677183032035
 20
0.5781249850988388
 30
0.3903494775295257
 70
   192
  0
VERTEX
  5
1C2
330
1BC
100
AcDbEntity
  8
3D-EQPM
100
AcDbVertex
100
AcDbPolyFaceMeshVertex
 10
-0.9062500298023222
 20
0.5781249850988388
 30
0.1659228466451168
 70
   192
  0
VERTEX
  5
1C3
330
1BC
100
AcDbEntity
  8
3D-EQPM
100
AcDbVertex
100
AcDbPolyFaceMeshVertex
 10
-0.9062500298023222
 20
0.5781249850988388
 30
0.0000000000012047
 70
   192
  0
VERTEX
  5
1C4
330
1BC
100
AcDbEntity
  8
3D-EQPM
100
AcDbVertex
100
AcDbPolyFaceMeshVertex
 10
-1.000000029802322
 20
0.5781249850988388
 30
0.000000000001205
 70
   192
  0
VERTEX
  5
1C5
330
1BC
100
AcDbEntity
  8
3D-EQPM
100
AcDbVertex
100
AcDbPolyFaceMeshVertex
 10
-1.000000029802322
 20
0.5781249850988388
 30
0.2327940836548805
 70
   192
  0
VERTEX
  5
1C6
330
1BC
100
AcDbEntity
  8
3D-EQPM
100
AcDbVertex
100
AcDbPolyFaceMeshVertex
 10
-0.5145558714866638
 20
0.5781249850988388
 30
0.470670998096466
 70
   192
  0
VERTEX
  5
1C7
330
1BC
100
AcDbEntity
  8
3D-EQPM
100
AcDbVertex
100
AcDbPolyFaceMeshVertex
 10
-0.3091552108526229
 20
0.5781249850988388
 30
0.470670998096466
 70
   192
  0
VERTEX
  5
1C8
330
1BC
100
AcDbEntity
  8
3D-EQPM
100
AcDbVertex
100
AcDbPolyFaceMeshVertex
 10
-0.3091552108526229
 20
0.5781249850988388
 30
0.5312499850988388
 70
   192
  0
VERTEX
  5
1C9
330
1BC
100
AcDbEntity
  8
3D-EQPM
100
AcDbVertex
100
AcDbPolyFaceMeshVertex
 10
0.3091552108526229
 20
0.5781249850988388
 30
0.5312499850988388
 70
   192
  0
VERTEX
  5
1CA
330
1BC
100
AcDbEntity
  8
3D-EQPM
100
AcDbVertex
100
AcDbPolyFaceMeshVertex
 10
0.3091552108526229
 20
0.5781249850988388
 30
0.470670998096466
 70
   192
  0
VERTEX
  5
1CB
330
1BC
100
AcDbEntity
  8
3D-EQPM
100
AcDbVertex
100
AcDbPolyFaceMeshVertex
 10
0.5145558714866638
 20
0.5781249850988388
 30
0.470670998096466
 70
   192
  0
VERTEX
  5
1CC
330
1BC
100
AcDbEntity
  8
3D-EQPM
100
AcDbVertex
100
AcDbPolyFaceMeshVertex
 10
1.000000029802322
 20
0.5781249850988388
 30
0.2327940836548805
 70
   192
  0
VERTEX
  5
1CD
330
1BC
100
AcDbEntity
  8
3D-EQPM
100
AcDbVertex
100
AcDbPolyFaceMeshVertex
 10
1.000000029802322
 20
0.5781249850988388
 30
0.0000000000011985
 70
   192
  0
VERTEX
  5
1CE
330
1BC
100
AcDbEntity
  8
3D-EQPM
100
AcDbVertex
100
AcDbPolyFaceMeshVertex
 10
0.9062500298023222
 20
0.5781249850988388
 30
0.0000000000011989
 70
   192
  0
VERTEX
  5
1CF
330
1BC
100
AcDbEntity
  8
3D-EQPM
100
AcDbFaceRecord
 10
0.0
 20
0.0
 30
0.0
 70
   128
 71
     6
 72
     7
 73
     8
 74
    -9
  0
VERTEX
  5
1D0
330
1BC
100
AcDbEntity
  8
3D-EQPM
100
AcDbFaceRecord
 10
0.0
 20
0.0
 30
0.0
 70
   128
 71
   -10
 72
     5
 73
    -6
 74
     9
  0
VERTEX
  5
1D1
330
1BC
100
AcDbEntity
  8
3D-EQPM
100
AcDbFaceRecord
 10
0.0
 20
0.0
 30
0.0
 70
   128
 71
    17
 72
    18
 73
    -1
 74
    16
  0
VERTEX
  5
1D2
330
1BC
100
AcDbEntity
  8
3D-EQPM
100
AcDbFaceRecord
 10
0.0
 20
0.0
 30
0.0
 70
   128
 71
    15
 72
   -16
 73
     1
 74
    -2
  0
VERTEX
  5
1D3
330
1BC
100
AcDbEntity
  8
3D-EQPM
100
AcDbFaceRecord
 10
0.0
 20
0.0
 30
0.0
 70
   128
 71
    11
 72
   -12
 73
     4
 74
    -5
  0
VERTEX
  5
1D4
330
1BC
100
AcDbEntity
  8
3D-EQPM
100
AcDbFaceRecord
 10
0.0
 20
0.0
 30
0.0
 70
   128
 71
    -5
 72
    10
 73
   -11
  0
VERTEX
  5
1D5
330
1BC
100
AcDbEntity
  8
3D-EQPM
100
AcDbFaceRecord
 10
0.0
 20
0.0
 30
0.0
 70
   128
 71
     3
 72
    -4
 73
    12
 74
   -13
  0
VERTEX
  5
1D6
330
1BC
100
AcDbEntity
  8
3D-EQPM
100
AcDbFaceRecord
 10
0.0
 20
0.0
 30
0.0
 70
   128
 71
   -14
 72
     2
 73
    -3
 74
    13
  0
VERTEX
  5
1D7
330
1BC
100
AcDbEntity
  8
3D-EQPM
100
AcDbFaceRecord
 10
0.0
 20
0.0
 30
0.0
 70
   128
 71
    14
 72
   -15
 73
    -2
  0
SEQEND
  5
1D8
330
1BC
100
AcDbEntity
  8
3D-EQPM
  0
POLYLINE
  5
1D9
330
80
100
AcDbEntity
  8
3D-EQPM
100
AcDbPolyFaceMesh
 66
     1
 10
0.0
 20
0.0
 30
0.0
 70
    64
 71
     4
 72
     1
1001
REVIT
1002
{
1070
     4
1000
2544
1002
}
1002
{
1070
     3
1000
6341
1002
}
  0
VERTEX
  5
1DA
330
1D9
100
AcDbEntity
  8
3D-EQPM
100
AcDbVertex
100
AcDbPolyFaceMeshVertex
 10
0.9062500298023222
 20
-0.5781249850988388
 30
0.0000000000011829
 70
   192
  0
VERTEX
  5
1DB
330
1D9
100
AcDbEntity
  8
3D-EQPM
100
AcDbVertex
100
AcDbPolyFaceMeshVertex
 10
0.9062500298023222
 20
-0.5781249850988388
 30
0.1659228466451168
 70
   192
  0
VERTEX
  5
1DC
330
1D9
100
AcDbEntity
  8
3D-EQPM
100
AcDbVertex
100
AcDbPolyFaceMeshVertex
 10
0.9062500298023222
 20
0.5781249850988388
 30
0.1659228466451168
 70
   192
  0
VERTEX
  5
1DD
330
1D9
100
AcDbEntity
  8
3D-EQPM
100
AcDbVertex
100
AcDbPolyFaceMeshVertex
 10
0.9062500298023222
 20
0.5781249850988388
 30
0.0000000000011989
 70
   192
  0
VERTEX
  5
1DE
330
1D9
100
AcDbEntity
  8
3D-EQPM
100
AcDbFaceRecord
 10
0.0
 20
0.0
 30
0.0
 70
   128
 71
     4
 72
     1
 73
     2
 74
     3
  0
SEQEND
  5
1DF
330
1D9
100
AcDbEntity
  8
3D-EQPM
  0
POLYLINE
  5
1E0
330
80
100
AcDbEntity
  8
3D-EQPM
100
AcDbPolyFaceMesh
 66
     1
 10
0.0
 20
0.0
 30
0.0
 70
    64
 71
     4
 72
     1
1001
REVIT
1002
{
1070
     4
1000
2544
1002
}
1002
{
1070
     3
1000
6341
1002
}
  0
VERTEX
  5
1E1
330
1E0
100
AcDbEntity
  8
3D-EQPM
100
AcDbVertex
100
AcDbPolyFaceMeshVertex
 10
1.000000029802322
 20
-0.5781249850988388
 30
0.0000000000011826
 70
   192
  0
VERTEX
  5
1E2
330
1E0
100
AcDbEntity
  8
3D-EQPM
100
AcDbVertex
100
AcDbPolyFaceMeshVertex
 10
0.9062500298023222
 20
-0.5781249850988388
 30
0.0000000000011829
 70
   192
  0
VERTEX
  5
1E3
330
1E0
100
AcDbEntity
  8
3D-EQPM
100
AcDbVertex
100
AcDbPolyFaceMeshVertex
 10
0.9062500298023222
 20
0.5781249850988388
 30
0.0000000000011988
 70
   192
  0
VERTEX
  5
1E4
330
1E0
100
AcDbEntity
  8
3D-EQPM
100
AcDbVertex
100
AcDbPolyFaceMeshVertex
 10
1.000000029802322
 20
0.5781249850988388
 30
0.0000000000011985
 70
   192
  0
VERTEX
  5
1E5
330
1E0
100
AcDbEntity
  8
3D-EQPM
100
AcDbFaceRecord
 10
0.0
 20
0.0
 30
0.0
 70
   128
 71
     4
 72
     1
 73
     2
 74
     3
  0
SEQEND
  5
1E6
330
1E0
100
AcDbEntity
  8
3D-EQPM
  0
POLYLINE
  5
1E7
330
80
100
AcDbEntity
  8
3D-EQPM
100
AcDbPolyFaceMesh
 66
     1
 10
0.0
 20
0.0
 30
0.0
 70
    64
 71
     4
 72
     1
1001
REVIT
1002
{
1070
     4
1000
2544
1002
}
1002
{
1070
     3
1000
6341
1002
}
  0
VERTEX
  5
1E8
330
1E7
100
AcDbEntity
  8
3D-EQPM
100
AcDbVertex
100
AcDbPolyFaceMeshVertex
 10
1.000000029802322
 20
-0.5781249850988388
 30
0.2327940836548805
 70
   192
  0
VERTEX
  5
1E9
330
1E7
100
AcDbEntity
  8
3D-EQPM
100
AcDbVertex
100
AcDbPolyFaceMeshVertex
 10
1.000000029802322
 20
-0.5781249850988388
 30
0.0000000000011826
 70
   192
  0
VERTEX
  5
1EA
330
1E7
100
AcDbEntity
  8
3D-EQPM
100
AcDbVertex
100
AcDbPolyFaceMeshVertex
 10
1.000000029802322
 20
0.5781249850988388
 30
0.0000000000011985
 70
   192
  0
VERTEX
  5
1EB
330
1E7
100
AcDbEntity
  8
3D-EQPM
100
AcDbVertex
100
AcDbPolyFaceMeshVertex
 10
1.000000029802322
 20
0.5781249850988388
 30
0.2327940836548805
 70
   192
  0
VERTEX
  5
1EC
330
1E7
100
AcDbEntity
  8
3D-EQPM
100
AcDbFaceRecord
 10
0.0
 20
0.0
 30
0.0
 70
   128
 71
     4
 72
     1
 73
     2
 74
     3
  0
SEQEND
  5
1ED
330
1E7
100
AcDbEntity
  8
3D-EQPM
  0
POLYLINE
  5
1EE
330
80
100
AcDbEntity
  8
3D-EQPM
100
AcDbPolyFaceMesh
 66
     1
 10
0.0
 20
0.0
 30
0.0
 70
    64
 71
     4
 72
     1
1001
REVIT
1002
{
1070
     4
1000
2544
1002
}
1002
{
1070
     3
1000
6341
1002
}
  0
VERTEX
  5
1EF
330
1EE
100
AcDbEntity
  8
3D-EQPM
100
AcDbVertex
100
AcDbPolyFaceMeshVertex
 10
0.5145558714866638
 20
-0.5781249850988388
 30
0.470670998096466
 70
   192
  0
VERTEX
  5
1F0
330
1EE
100
AcDbEntity
  8
3D-EQPM
100
AcDbVertex
100
AcDbPolyFaceMeshVertex
 10
1.000000029802322
 20
-0.5781249850988388
 30
0.2327940836548805
 70
   192
  0
VERTEX
  5
1F1
330
1EE
100
AcDbEntity
  8
3D-EQPM
100
AcDbVertex
100
AcDbPolyFaceMeshVertex
 10
1.000000029802322
 20
0.5781249850988388
 30
0.2327940836548805
 70
   192
  0
VERTEX
  5
1F2
330
1EE
100
AcDbEntity
  8
3D-EQPM
100
AcDbVertex
100
AcDbPolyFaceMeshVertex
 10
0.5145558714866638
 20
0.5781249850988388
 30
0.470670998096466
 70
   192
  0
VERTEX
  5
1F3
330
1EE
100
AcDbEntity
  8
3D-EQPM
100
AcDbFaceRecord
 10
0.0
 20
0.0
 30
0.0
 70
   128
 71
     1
 72
     2
 73
     3
 74
     4
  0
SEQEND
  5
1F4
330
1EE
100
AcDbEntity
  8
3D-EQPM
  0
POLYLINE
  5
1F5
330
80
100
AcDbEntity
  8
3D-EQPM
100
AcDbPolyFaceMesh
 66
     1
 10
0.0
 20
0.0
 30
0.0
 70
    64
 71
     4
 72
     1
1001
REVIT
1002
{
1070
     4
1000
2544
1002
}
1002
{
1070
     3
1000
6341
1002
}
  0
VERTEX
  5
1F6
330
1F5
100
AcDbEntity
  8
3D-EQPM
100
AcDbVertex
100
AcDbPolyFaceMeshVertex
 10
0.3091552108526229
 20
-0.5781249850988388
 30
0.470670998096466
 70
   192
  0
VERTEX
  5
1F7
330
1F5
100
AcDbEntity
  8
3D-EQPM
100
AcDbVertex
100
AcDbPolyFaceMeshVertex
 10
0.5145558714866638
 20
-0.5781249850988388
 30
0.470670998096466
 70
   192
  0
VERTEX
  5
1F8
330
1F5
100
AcDbEntity
  8
3D-EQPM
100
AcDbVertex
100
AcDbPolyFaceMeshVertex
 10
0.5145558714866638
 20
0.5781249850988388
 30
0.470670998096466
 70
   192
  0
VERTEX
  5
1F9
330
1F5
100
AcDbEntity
  8
3D-EQPM
100
AcDbVertex
100
AcDbPolyFaceMeshVertex
 10
0.3091552108526229
 20
0.5781249850988388
 30
0.470670998096466
 70
   192
  0
VERTEX
  5
1FA
330
1F5
100
AcDbEntity
  8
3D-EQPM
100
AcDbFaceRecord
 10
0.0
 20
0.0
 30
0.0
 70
   128
 71
     4
 72
     1
 73
     2
 74
     3
  0
SEQEND
  5
1FB
330
1F5
100
AcDbEntity
  8
3D-EQPM
  0
POLYLINE
  5
1FC
330
80
100
AcDbEntity
  8
3D-EQPM
100
AcDbPolyFaceMesh
 66
     1
 10
0.0
 20
0.0
 30
0.0
 70
    64
 71
     4
 72
     1
1001
REVIT
1002
{
1070
     4
1000
2544
1002
}
1002
{
1070
     3
1000
6341
1002
}
  0
VERTEX
  5
1FD
330
1FC
100
AcDbEntity
  8
3D-EQPM
100
AcDbVertex
100
AcDbPolyFaceMeshVertex
 10
0.3091552108526229
 20
-0.5781249850988388
 30
0.5312499850988388
 70
   192
  0
VERTEX
  5
1FE
330
1FC
100
AcDbEntity
  8
3D-EQPM
100
AcDbVertex
100
AcDbPolyFaceMeshVertex
 10
0.3091552108526229
 20
-0.5781249850988388
 30
0.470670998096466
 70
   192
  0
VERTEX
  5
1FF
330
1FC
100
AcDbEntity
  8
3D-EQPM
100
AcDbVertex
100
AcDbPolyFaceMeshVertex
 10
0.3091552108526229
 20
0.5781249850988388
 30
0.470670998096466
 70
   192
  0
VERTEX
  5
200
330
1FC
100
AcDbEntity
  8
3D-EQPM
100
AcDbVertex
100
AcDbPolyFaceMeshVertex
 10
0.3091552108526229
 20
0.5781249850988388
 30
0.5312499850988388
 70
   192
  0
VERTEX
  5
201
330
1FC
100
AcDbEntity
  8
3D-EQPM
100
AcDbFaceRecord
 10
0.0
 20
0.0
 30
0.0
 70
   128
 71
     4
 72
     1
 73
     2
 74
     3
  0
SEQEND
  5
202
330
1FC
100
AcDbEntity
  8
3D-EQPM
  0
POLYLINE
  5
203
330
80
100
AcDbEntity
  8
3D-EQPM
100
AcDbPolyFaceMesh
 66
     1
 10
0.0
 20
0.0
 30
0.0
 70
    64
 71
     4
 72
     1
1001
REVIT
1002
{
1070
     4
1000
2544
1002
}
1002
{
1070
     3
1000
6341
1002
}
  0
VERTEX
  5
204
330
203
100
AcDbEntity
  8
3D-EQPM
100
AcDbVertex
100
AcDbPolyFaceMeshVertex
 10
-0.3091552108526229
 20
-0.5781249850988388
 30
0.5312499850988388
 70
   192
  0
VERTEX
  5
205
330
203
100
AcDbEntity
  8
3D-EQPM
100
AcDbVertex
100
AcDbPolyFaceMeshVertex
 10
0.3091552108526229
 20
-0.5781249850988388
 30
0.5312499850988388
 70
   192
  0
VERTEX
  5
206
330
203
100
AcDbEntity
  8
3D-EQPM
100
AcDbVertex
100
AcDbPolyFaceMeshVertex
 10
0.3091552108526229
 20
0.5781249850988388
 30
0.5312499850988388
 70
   192
  0
VERTEX
  5
207
330
203
100
AcDbEntity
  8
3D-EQPM
100
AcDbVertex
100
AcDbPolyFaceMeshVertex
 10
-0.3091552108526229
 20
0.5781249850988388
 30
0.5312499850988388
 70
   192
  0
VERTEX
  5
208
330
203
100
AcDbEntity
  8
3D-EQPM
100
AcDbFaceRecord
 10
0.0
 20
0.0
 30
0.0
 70
   128
 71
     4
 72
     1
 73
     2
 74
     3
  0
SEQEND
  5
209
330
203
100
AcDbEntity
  8
3D-EQPM
  0
POLYLINE
  5
20A
330
80
100
AcDbEntity
  8
3D-EQPM
100
AcDbPolyFaceMesh
 66
     1
 10
0.0
 20
0.0
 30
0.0
 70
    64
 71
     4
 72
     1
1001
REVIT
1002
{
1070
     4
1000
2544
1002
}
1002
{
1070
     3
1000
6341
1002
}
  0
VERTEX
  5
20B
330
20A
100
AcDbEntity
  8
3D-EQPM
100
AcDbVertex
100
AcDbPolyFaceMeshVertex
 10
-0.3091552108526229
 20
-0.5781249850988388
 30
0.470670998096466
 70
   192
  0
VERTEX
  5
20C
330
20A
100
AcDbEntity
  8
3D-EQPM
100
AcDbVertex
100
AcDbPolyFaceMeshVertex
 10
-0.3091552108526229
 20
-0.5781249850988388
 30
0.5312499850988388
 70
   192
  0
VERTEX
  5
20D
330
20A
100
AcDbEntity
  8
3D-EQPM
100
AcDbVertex
100
AcDbPolyFaceMeshVertex
 10
-0.3091552108526229
 20
0.5781249850988388
 30
0.5312499850988388
 70
   192
  0
VERTEX
  5
20E
330
20A
100
AcDbEntity
  8
3D-EQPM
100
AcDbVertex
100
AcDbPolyFaceMeshVertex
 10
-0.3091552108526229
 20
0.5781249850988388
 30
0.470670998096466
 70
   192
  0
VERTEX
  5
20F
330
20A
100
AcDbEntity
  8
3D-EQPM
100
AcDbFaceRecord
 10
0.0
 20
0.0
 30
0.0
 70
   128
 71
     1
 72
     2
 73
     3
 74
     4
  0
SEQEND
  5
210
330
20A
100
AcDbEntity
  8
3D-EQPM
  0
POLYLINE
  5
211
330
80
100
AcDbEntity
  8
3D-EQPM
100
AcDbPolyFaceMesh
 66
     1
 10
0.0
 20
0.0
 30
0.0
 70
    64
 71
     4
 72
     1
1001
REVIT
1002
{
1070
     4
1000
2544
1002
}
1002
{
1070
     3
1000
6341
1002
}
  0
VERTEX
  5
212
330
211
100
AcDbEntity
  8
3D-EQPM
100
AcDbVertex
100
AcDbPolyFaceMeshVertex
 10
-0.5145558714866638
 20
-0.5781249850988388
 30
0.470670998096466
 70
   192
  0
VERTEX
  5
213
330
211
100
AcDbEntity
  8
3D-EQPM
100
AcDbVertex
100
AcDbPolyFaceMeshVertex
 10
-0.3091552108526229
 20
-0.5781249850988388
 30
0.470670998096466
 70
   192
  0
VERTEX
  5
214
330
211
100
AcDbEntity
  8
3D-EQPM
100
AcDbVertex
100
AcDbPolyFaceMeshVertex
 10
-0.3091552108526229
 20
0.5781249850988388
 30
0.470670998096466
 70
   192
  0
VERTEX
  5
215
330
211
100
AcDbEntity
  8
3D-EQPM
100
AcDbVertex
100
AcDbPolyFaceMeshVertex
 10
-0.5145558714866638
 20
0.5781249850988388
 30
0.470670998096466
 70
   192
  0
VERTEX
  5
216
330
211
100
AcDbEntity
  8
3D-EQPM
100
AcDbFaceRecord
 10
0.0
 20
0.0
 30
0.0
 70
   128
 71
     1
 72
     2
 73
     3
 74
     4
  0
SEQEND
  5
217
330
211
100
AcDbEntity
  8
3D-EQPM
  0
POLYLINE
  5
218
330
80
100
AcDbEntity
  8
3D-EQPM
100
AcDbPolyFaceMesh
 66
     1
 10
0.0
 20
0.0
 30
0.0
 70
    64
 71
     4
 72
     1
1001
REVIT
1002
{
1070
     4
1000
2544
1002
}
1002
{
1070
     3
1000
6341
1002
}
  0
VERTEX
  5
219
330
218
100
AcDbEntity
  8
3D-EQPM
100
AcDbVertex
100
AcDbPolyFaceMeshVertex
 10
-1.000000029802322
 20
-0.5781249850988388
 30
0.2327940836548805
 70
   192
  0
VERTEX
  5
21A
330
218
100
AcDbEntity
  8
3D-EQPM
100
AcDbVertex
100
AcDbPolyFaceMeshVertex
 10
-0.5145558714866638
 20
-0.5781249850988388
 30
0.470670998096466
 70
   192
  0
VERTEX
  5
21B
330
218
100
AcDbEntity
  8
3D-EQPM
100
AcDbVertex
100
AcDbPolyFaceMeshVertex
 10
-0.5145558714866638
 20
0.5781249850988388
 30
0.470670998096466
 70
   192
  0
VERTEX
  5
21C
330
218
100
AcDbEntity
  8
3D-EQPM
100
AcDbVertex
100
AcDbPolyFaceMeshVertex
 10
-1.000000029802322
 20
0.5781249850988388
 30
0.2327940836548805
 70
   192
  0
VERTEX
  5
21D
330
218
100
AcDbEntity
  8
3D-EQPM
100
AcDbFaceRecord
 10
0.0
 20
0.0
 30
0.0
 70
   128
 71
     4
 72
     1
 73
     2
 74
     3
  0
SEQEND
  5
21E
330
218
100
AcDbEntity
  8
3D-EQPM
  0
POLYLINE
  5
21F
330
80
100
AcDbEntity
  8
3D-EQPM
100
AcDbPolyFaceMesh
 66
     1
 10
0.0
 20
0.0
 30
0.0
 70
    64
 71
     4
 72
     1
1001
REVIT
1002
{
1070
     4
1000
2544
1002
}
1002
{
1070
     3
1000
6341
1002
}
  0
VERTEX
  5
220
330
21F
100
AcDbEntity
  8
3D-EQPM
100
AcDbVertex
100
AcDbPolyFaceMeshVertex
 10
-1.000000029802322
 20
-0.5781249850988388
 30
0.000000000001189
 70
   192
  0
VERTEX
  5
221
330
21F
100
AcDbEntity
  8
3D-EQPM
100
AcDbVertex
100
AcDbPolyFaceMeshVertex
 10
-1.000000029802322
 20
-0.5781249850988388
 30
0.2327940836548805
 70
   192
  0
VERTEX
  5
222
330
21F
100
AcDbEntity
  8
3D-EQPM
100
AcDbVertex
100
AcDbPolyFaceMeshVertex
 10
-1.000000029802322
 20
0.5781249850988388
 30
0.2327940836548805
 70
   192
  0
VERTEX
  5
223
330
21F
100
AcDbEntity
  8
3D-EQPM
100
AcDbVertex
100
AcDbPolyFaceMeshVertex
 10
-1.000000029802322
 20
0.5781249850988388
 30
0.000000000001205
 70
   192
  0
VERTEX
  5
224
330
21F
100
AcDbEntity
  8
3D-EQPM
100
AcDbFaceRecord
 10
0.0
 20
0.0
 30
0.0
 70
   128
 71
     4
 72
     1
 73
     2
 74
     3
  0
SEQEND
  5
225
330
21F
100
AcDbEntity
  8
3D-EQPM
  0
POLYLINE
  5
226
330
80
100
AcDbEntity
  8
3D-EQPM
100
AcDbPolyFaceMesh
 66
     1
 10
0.0
 20
0.0
 30
0.0
 70
    64
 71
     4
 72
     1
1001
REVIT
1002
{
1070
     4
1000
2544
1002
}
1002
{
1070
     3
1000
6341
1002
}
  0
VERTEX
  5
227
330
226
100
AcDbEntity
  8
3D-EQPM
100
AcDbVertex
100
AcDbPolyFaceMeshVertex
 10
-0.9062500298023222
 20
-0.5781249850988388
 30
0.0000000000011887
 70
   192
  0
VERTEX
  5
228
330
226
100
AcDbEntity
  8
3D-EQPM
100
AcDbVertex
100
AcDbPolyFaceMeshVertex
 10
-1.000000029802322
 20
-0.5781249850988388
 30
0.000000000001189
 70
   192
  0
VERTEX
  5
229
330
226
100
AcDbEntity
  8
3D-EQPM
100
AcDbVertex
100
AcDbPolyFaceMeshVertex
 10
-1.000000029802322
 20
0.5781249850988388
 30
0.000000000001205
 70
   192
  0
VERTEX
  5
22A
330
226
100
AcDbEntity
  8
3D-EQPM
100
AcDbVertex
100
AcDbPolyFaceMeshVertex
 10
-0.9062500298023222
 20
0.5781249850988388
 30
0.0000000000012047
 70
   192
  0
VERTEX
  5
22B
330
226
100
AcDbEntity
  8
3D-EQPM
100
AcDbFaceRecord
 10
0.0
 20
0.0
 30
0.0
 70
   128
 71
     4
 72
     1
 73
     2
 74
     3
  0
SEQEND
  5
22C
330
226
100
AcDbEntity
  8
3D-EQPM
  0
POLYLINE
  5
22D
330
80
100
AcDbEntity
  8
3D-EQPM
100
AcDbPolyFaceMesh
 66
     1
 10
0.0
 20
0.0
 30
0.0
 70
    64
 71
     4
 72
     1
1001
REVIT
1002
{
1070
     4
1000
2544
1002
}
1002
{
1070
     3
1000
6341
1002
}
  0
VERTEX
  5
22E
330
22D
100
AcDbEntity
  8
3D-EQPM
100
AcDbVertex
100
AcDbPolyFaceMeshVertex
 10
-0.9062500298023222
 20
-0.5781249850988388
 30
0.1659228466451168
 70
   192
  0
VERTEX
  5
22F
330
22D
100
AcDbEntity
  8
3D-EQPM
100
AcDbVertex
100
AcDbPolyFaceMeshVertex
 10
-0.9062500298023222
 20
-0.5781249850988388
 30
0.0000000000011887
 70
   192
  0
VERTEX
  5
230
330
22D
100
AcDbEntity
  8
3D-EQPM
100
AcDbVertex
100
AcDbPolyFaceMeshVertex
 10
-0.9062500298023222
 20
0.5781249850988388
 30
0.0000000000012047
 70
   192
  0
VERTEX
  5
231
330
22D
100
AcDbEntity
  8
3D-EQPM
100
AcDbVertex
100
AcDbPolyFaceMeshVertex
 10
-0.9062500298023222
 20
0.5781249850988388
 30
0.1659228466451168
 70
   192
  0
VERTEX
  5
232
330
22D
100
AcDbEntity
  8
3D-EQPM
100
AcDbFaceRecord
 10
0.0
 20
0.0
 30
0.0
 70
   128
 71
     1
 72
     2
 73
     3
 74
     4
  0
SEQEND
  5
233
330
22D
100
AcDbEntity
  8
3D-EQPM
  0
POLYLINE
  5
234
330
80
100
AcDbEntity
  8
3D-EQPM
100
AcDbPolyFaceMesh
 66
     1
 10
0.0
 20
0.0
 30
0.0
 70
    64
 71
     4
 72
     1
1001
REVIT
1002
{
1070
     4
1000
2544
1002
}
1002
{
1070
     3
1000
6341
1002
}
  0
VERTEX
  5
235
330
234
100
AcDbEntity
  8
3D-EQPM
100
AcDbVertex
100
AcDbPolyFaceMeshVertex
 10
-0.2544677183032035
 20
-0.5781249850988388
 30
0.3903494775295257
 70
   192
  0
VERTEX
  5
236
330
234
100
AcDbEntity
  8
3D-EQPM
100
AcDbVertex
100
AcDbPolyFaceMeshVertex
 10
-0.9062500298023222
 20
-0.5781249850988388
 30
0.1659228466451168
 70
   192
  0
VERTEX
  5
237
330
234
100
AcDbEntity
  8
3D-EQPM
100
AcDbVertex
100
AcDbPolyFaceMeshVertex
 10
-0.9062500298023222
 20
0.5781249850988388
 30
0.1659228466451168
 70
   192
  0
VERTEX
  5
238
330
234
100
AcDbEntity
  8
3D-EQPM
100
AcDbVertex
100
AcDbPolyFaceMeshVertex
 10
-0.2544677183032035
 20
0.5781249850988388
 30
0.3903494775295257
 70
   192
  0
VERTEX
  5
239
330
234
100
AcDbEntity
  8
3D-EQPM
100
AcDbFaceRecord
 10
0.0
 20
0.0
 30
0.0
 70
   128
 71
     1
 72
     2
 73
     3
 74
     4
  0
SEQEND
  5
23A
330
234
100
AcDbEntity
  8
3D-EQPM
  0
POLYLINE
  5
23B
330
80
100
AcDbEntity
  8
3D-EQPM
100
AcDbPolyFaceMesh
 66
     1
 10
0.0
 20
0.0
 30
0.0
 70
    64
 71
     4
 72
     1
1001
REVIT
1002
{
1070
     4
1000
2544
1002
}
1002
{
1070
     3
1000
6341
1002
}
  0
VERTEX
  5
23C
330
23B
100
AcDbEntity
  8
3D-EQPM
100
AcDbVertex
100
AcDbPolyFaceMeshVertex
 10
-0.2544677183032035
 20
-0.5781249850988388
 30
0.4374999850988388
 70
   192
  0
VERTEX
  5
23D
330
23B
100
AcDbEntity
  8
3D-EQPM
100
AcDbVertex
100
AcDbPolyFaceMeshVertex
 10
-0.2544677183032035
 20
-0.5781249850988388
 30
0.3903494775295257
 70
   192
  0
VERTEX
  5
23E
330
23B
100
AcDbEntity
  8
3D-EQPM
100
AcDbVertex
100
AcDbPolyFaceMeshVertex
 10
-0.2544677183032035
 20
0.5781249850988388
 30
0.3903494775295257
 70
   192
  0
VERTEX
  5
23F
330
23B
100
AcDbEntity
  8
3D-EQPM
100
AcDbVertex
100
AcDbPolyFaceMeshVertex
 10
-0.2544677183032035
 20
0.5781249850988388
 30
0.4374999850988388
 70
   192
  0
VERTEX
  5
240
330
23B
100
AcDbEntity
  8
3D-EQPM
100
AcDbFaceRecord
 10
0.0
 20
0.0
 30
0.0
 70
   128
 71
     4
 72
     1
 73
     2
 74
     3
  0
SEQEND
  5
241
330
23B
100
AcDbEntity
  8
3D-EQPM
  0
POLYLINE
  5
242
330
80
100
AcDbEntity
  8
3D-EQPM
100
AcDbPolyFaceMesh
 66
     1
 10
0.0
 20
0.0
 30
0.0
 70
    64
 71
     4
 72
     1
1001
REVIT
1002
{
1070
     4
1000
2544
1002
}
1002
{
1070
     3
1000
6341
1002
}
  0
VERTEX
  5
243
330
242
100
AcDbEntity
  8
3D-EQPM
100
AcDbVertex
100
AcDbPolyFaceMeshVertex
 10
0.2544677183032035
 20
-0.5781249850988388
 30
0.4374999850988388
 70
   192
  0
VERTEX
  5
244
330
242
100
AcDbEntity
  8
3D-EQPM
100
AcDbVertex
100
AcDbPolyFaceMeshVertex
 10
-0.2544677183032035
 20
-0.5781249850988388
 30
0.4374999850988388
 70
   192
  0
VERTEX
  5
245
330
242
100
AcDbEntity
  8
3D-EQPM
100
AcDbVertex
100
AcDbPolyFaceMeshVertex
 10
-0.2544677183032035
 20
0.5781249850988388
 30
0.4374999850988388
 70
   192
  0
VERTEX
  5
246
330
242
100
AcDbEntity
  8
3D-EQPM
100
AcDbVertex
100
AcDbPolyFaceMeshVertex
 10
0.2544677183032035
 20
0.5781249850988388
 30
0.4374999850988388
 70
   192
  0
VERTEX
  5
247
330
242
100
AcDbEntity
  8
3D-EQPM
100
AcDbFaceRecord
 10
0.0
 20
0.0
 30
0.0
 70
   128
 71
     4
 72
     1
 73
     2
 74
     3
  0
SEQEND
  5
248
330
242
100
AcDbEntity
  8
3D-EQPM
  0
POLYLINE
  5
249
330
80
100
AcDbEntity
  8
3D-EQPM
100
AcDbPolyFaceMesh
 66
     1
 10
0.0
 20
0.0
 30
0.0
 70
    64
 71
     4
 72
     1
1001
REVIT
1002
{
1070
     4
1000
2544
1002
}
1002
{
1070
     3
1000
6341
1002
}
  0
VERTEX
  5
24A
330
249
100
AcDbEntity
  8
3D-EQPM
100
AcDbVertex
100
AcDbPolyFaceMeshVertex
 10
0.2544677183032035
 20
-0.5781249850988388
 30
0.3903494775295257
 70
   192
  0
VERTEX
  5
24B
330
249
100
AcDbEntity
  8
3D-EQPM
100
AcDbVertex
100
AcDbPolyFaceMeshVertex
 10
0.2544677183032035
 20
-0.5781249850988388
 30
0.4374999850988388
 70
   192
  0
VERTEX
  5
24C
330
249
100
AcDbEntity
  8
3D-EQPM
100
AcDbVertex
100
AcDbPolyFaceMeshVertex
 10
0.2544677183032035
 20
0.5781249850988388
 30
0.4374999850988388
 70
   192
  0
VERTEX
  5
24D
330
249
100
AcDbEntity
  8
3D-EQPM
100
AcDbVertex
100
AcDbPolyFaceMeshVertex
 10
0.2544677183032035
 20
0.5781249850988388
 30
0.3903494775295257
 70
   192
  0
VERTEX
  5
24E
330
249
100
AcDbEntity
  8
3D-EQPM
100
AcDbFaceRecord
 10
0.0
 20
0.0
 30
0.0
 70
   128
 71
     4
 72
     1
 73
     2
 74
     3
  0
SEQEND
  5
24F
330
249
100
AcDbEntity
  8
3D-EQPM
  0
POLYLINE
  5
250
330
80
100
AcDbEntity
  8
3D-EQPM
100
AcDbPolyFaceMesh
 66
     1
 10
0.0
 20
0.0
 30
0.0
 70
    64
 71
     4
 72
     1
1001
REVIT
1002
{
1070
     4
1000
2544
1002
}
1002
{
1070
     3
1000
6341
1002
}
  0
VERTEX
  5
251
330
250
100
AcDbEntity
  8
3D-EQPM
100
AcDbVertex
100
AcDbPolyFaceMeshVertex
 10
0.9062500298023222
 20
-0.5781249850988388
 30
0.1659228466451168
 70
   192
  0
VERTEX
  5
252
330
250
100
AcDbEntity
  8
3D-EQPM
100
AcDbVertex
100
AcDbPolyFaceMeshVertex
 10
0.2544677183032035
 20
-0.5781249850988388
 30
0.3903494775295257
 70
   192
  0
VERTEX
  5
253
330
250
100
AcDbEntity
  8
3D-EQPM
100
AcDbVertex
100
AcDbPolyFaceMeshVertex
 10
0.2544677183032035
 20
0.5781249850988388
 30
0.3903494775295257
 70
   192
  0
VERTEX
  5
254
330
250
100
AcDbEntity
  8
3D-EQPM
100
AcDbVertex
100
AcDbPolyFaceMeshVertex
 10
0.9062500298023222
 20
0.5781249850988388
 30
0.1659228466451168
 70
   192
  0
VERTEX
  5
255
330
250
100
AcDbEntity
  8
3D-EQPM
100
AcDbFaceRecord
 10
0.0
 20
0.0
 30
0.0
 70
   128
 71
     1
 72
     2
 73
     3
 74
     4
  0
SEQEND
  5
256
330
250
100
AcDbEntity
  8
3D-EQPM
  0
POLYLINE
  5
257
330
80
100
AcDbEntity
  8
3D-EQPM
100
AcDbPolyFaceMesh
 66
     1
 10
0.0
 20
0.0
 30
0.0
 70
    64
 71
    31
 72
    17
1001
REVIT
1002
{
1070
     4
1000
2544
1002
}
1002
{
1070
     3
1000
6341
1002
}
  0
VERTEX
  5
258
330
257
100
AcDbEntity
  8
3D-EQPM
100
AcDbVertex
100
AcDbPolyFaceMeshVertex
 10
-0.8125000298023222
 20
-1.031249999999999
 30
0.0000000000011828
 70
   192
  0
VERTEX
  5
259
330
257
100
AcDbEntity
  8
3D-EQPM
100
AcDbVertex
100
AcDbPolyFaceMeshVertex
 10
-0.8125000298023222
 20
-1.031249999999999
 30
0.0530172195285559
 70
   192
  0
VERTEX
  5
25A
330
257
100
AcDbEntity
  8
3D-EQPM
100
AcDbVertex
100
AcDbPolyFaceMeshVertex
 10
-0.6843131035566329
 20
-1.031249999999999
 30
0.1104782223701477
 70
   192
  0
VERTEX
  5
25B
330
257
100
AcDbEntity
  8
3D-EQPM
100
AcDbVertex
100
AcDbPolyFaceMeshVertex
 10
-0.5520982593297958
 20
-1.031249999999999
 30
0.1579426936805248
 70
   192
  0
VERTEX
  5
25C
330
257
100
AcDbEntity
  8
3D-EQPM
100
AcDbVertex
100
AcDbPolyFaceMeshVertex
 10
-0.5727388858795166
 20
-1.031249999999999
 30
0.2206177935004234
 70
   192
  0
VERTEX
  5
25D
330
257
100
AcDbEntity
  8
3D-EQPM
100
AcDbVertex
100
AcDbPolyFaceMeshVertex
 10
-0.4750510901212692
 20
-1.031249999999999
 30
0.2498006522655487
 70
   192
  0
VERTEX
  5
25E
330
257
100
AcDbEntity
  8
3D-EQPM
100
AcDbVertex
100
AcDbPolyFaceMeshVertex
 10
-0.3758903592824935
 20
-1.031249999999999
 30
0.2735008969902992
 70
   192
  0
VERTEX
  5
25F
330
257
100
AcDbEntity
  8
3D-EQPM
100
AcDbVertex
100
AcDbPolyFaceMeshVertex
 10
-0.3619477450847625
 20
-1.031249999999999
 30
0.2070315778255462
 70
   192
  0
VERTEX
  5
260
330
257
100
AcDbEntity
  8
3D-EQPM
100
AcDbVertex
100
AcDbPolyFaceMeshVertex
 10
-0.2516712024807929
 20
-1.031249999999999
 30
0.225783996284008
 70
   192
  0
VERTEX
  5
261
330
257
100
AcDbEntity
  8
3D-EQPM
100
AcDbVertex
100
AcDbPolyFaceMeshVertex
 10
-0.1404553726315498
 20
-1.031249999999999
 30
0.2377675026655197
 70
   192
  0
VERTEX
  5
262
330
257
100
AcDbEntity
  8
3D-EQPM
100
AcDbVertex
100
AcDbPolyFaceMeshVertex
 10
-0.1404553726315498
 20
-1.031249999999999
 30
0.3071049079298973
 70
   192
  0
VERTEX
  5
263
330
257
100
AcDbEntity
  8
3D-EQPM
100
AcDbVertex
100
AcDbPolyFaceMeshVertex
 10
0.0000000000002348
 20
-1.031249999999999
 30
0.3124999925494194
 70
   192
  0
VERTEX
  5
264
330
257
100
AcDbEntity
  8
3D-EQPM
100
AcDbVertex
100
AcDbPolyFaceMeshVertex
 10
0.1404553726315498
 20
-1.031249999999999
 30
0.3071049079298973
 70
   192
  0
VERTEX
  5
265
330
257
100
AcDbEntity
  8
3D-EQPM
100
AcDbVertex
100
AcDbPolyFaceMeshVertex
 10
0.1404553726315498
 20
-1.031249999999999
 30
0.2377675026655197
 70
   192
  0
VERTEX
  5
266
330
257
100
AcDbEntity
  8
3D-EQPM
100
AcDbVertex
100
AcDbPolyFaceMeshVertex
 10
0.2516712024807929
 20
-1.031249999999999
 30
0.225783996284008
 70
   192
  0
VERTEX
  5
267
330
257
100
AcDbEntity
  8
3D-EQPM
100
AcDbVertex
100
AcDbPolyFaceMeshVertex
 10
0.3619477450847625
 20
-1.031249999999999
 30
0.2070315778255462
 70
   192
  0
VERTEX
  5
268
330
257
100
AcDbEntity
  8
3D-EQPM
100
AcDbVertex
100
AcDbPolyFaceMeshVertex
 10
0.3758903592824935
 20
-1.031249999999999
 30
0.2735008969902992
 70
   192
  0
VERTEX
  5
269
330
257
100
AcDbEntity
  8
3D-EQPM
100
AcDbVertex
100
AcDbPolyFaceMeshVertex
 10
0.4750510901212692
 20
-1.031249999999999
 30
0.2498006522655487
 70
   192
  0
VERTEX
  5
26A
330
257
100
AcDbEntity
  8
3D-EQPM
100
AcDbVertex
100
AcDbPolyFaceMeshVertex
 10
0.5727388858795166
 20
-1.031249999999999
 30
0.2206177935004234
 70
   192
  0
VERTEX
  5
26B
330
257
100
AcDbEntity
  8
3D-EQPM
100
AcDbVertex
100
AcDbPolyFaceMeshVertex
 10
0.5520982593297958
 20
-1.031249999999999
 30
0.1579426936805248
 70
   192
  0
VERTEX
  5
26C
330
257
100
AcDbEntity
  8
3D-EQPM
100
AcDbVertex
100
AcDbPolyFaceMeshVertex
 10
0.6843131035566329
 20
-1.031249999999999
 30
0.1104782223701477
 70
   192
  0
VERTEX
  5
26D
330
257
100
AcDbEntity
  8
3D-EQPM
100
AcDbVertex
100
AcDbPolyFaceMeshVertex
 10
0.8125000298023222
 20
-1.031249999999999
 30
0.0530172195285559
 70
   192
  0
VERTEX
  5
26E
330
257
100
AcDbEntity
  8
3D-EQPM
100
AcDbVertex
100
AcDbPolyFaceMeshVertex
 10
0.8125000298023222
 20
-1.031249999999999
 30
0.0000000000011776
 70
   192
  0
VERTEX
  5
26F
330
257
100
AcDbEntity
  8
3D-EQPM
100
AcDbVertex
100
AcDbPolyFaceMeshVertex
 10
0.9062500298023222
 20
-1.031249999999999
 30
0.0000000000011773
 70
   192
  0
VERTEX
  5
270
330
257
100
AcDbEntity
  8
3D-EQPM
100
AcDbVertex
100
AcDbPolyFaceMeshVertex
 10
0.9062500298023222
 20
-1.031249999999999
 30
0.1659228466451168
 70
   192
  0
VERTEX
  5
271
330
257
100
AcDbEntity
  8
3D-EQPM
100
AcDbVertex
100
AcDbPolyFaceMeshVertex
 10
0.2544677183032035
 20
-1.031249999999999
 30
0.3903494775295257
 70
   192
  0
VERTEX
  5
272
330
257
100
AcDbEntity
  8
3D-EQPM
100
AcDbVertex
100
AcDbPolyFaceMeshVertex
 10
0.2544677183032035
 20
-1.031249999999999
 30
0.4374999850988388
 70
   192
  0
VERTEX
  5
273
330
257
100
AcDbEntity
  8
3D-EQPM
100
AcDbVertex
100
AcDbPolyFaceMeshVertex
 10
-0.2544677183032035
 20
-1.031249999999999
 30
0.4374999850988388
 70
   192
  0
VERTEX
  5
274
330
257
100
AcDbEntity
  8
3D-EQPM
100
AcDbVertex
100
AcDbPolyFaceMeshVertex
 10
-0.2544677183032035
 20
-1.031249999999999
 30
0.3903494775295257
 70
   192
  0
VERTEX
  5
275
330
257
100
AcDbEntity
  8
3D-EQPM
100
AcDbVertex
100
AcDbPolyFaceMeshVertex
 10
-0.9062500298023222
 20
-1.031249999999999
 30
0.1659228466451168
 70
   192
  0
VERTEX
  5
276
330
257
100
AcDbEntity
  8
3D-EQPM
100
AcDbVertex
100
AcDbPolyFaceMeshVertex
 10
-0.9062500298023222
 20
-1.031249999999999
 30
0.0000000000011831
 70
   192
  0
VERTEX
  5
277
330
257
100
AcDbEntity
  8
3D-EQPM
100
AcDbFaceRecord
 10
0.0
 20
0.0
 30
0.0
 70
   128
 71
    22
 72
    23
 73
    24
 74
   -25
  0
VERTEX
  5
278
330
257
100
AcDbEntity
  8
3D-EQPM
100
AcDbFaceRecord
 10
0.0
 20
0.0
 30
0.0
 70
   128
 71
   -25
 72
   -19
 73
    21
 74
   -22
  0
VERTEX
  5
279
330
257
100
AcDbEntity
  8
3D-EQPM
100
AcDbFaceRecord
 10
0.0
 20
0.0
 30
0.0
 70
   128
 71
    19
 72
    20
 73
   -21
  0
VERTEX
  5
27A
330
257
100
AcDbEntity
  8
3D-EQPM
100
AcDbFaceRecord
 10
0.0
 20
0.0
 30
0.0
 70
   128
 71
   -30
 72
     2
 73
    -3
 74
    -5
  0
VERTEX
  5
27B
330
257
100
AcDbEntity
  8
3D-EQPM
100
AcDbFaceRecord
 10
0.0
 20
0.0
 30
0.0
 70
   128
 71
    31
 72
     1
 73
    -2
 74
    30
  0
VERTEX
  5
27C
330
257
100
AcDbEntity
  8
3D-EQPM
100
AcDbFaceRecord
 10
0.0
 20
0.0
 30
0.0
 70
   128
 71
     4
 72
    -5
 73
     3
  0
VERTEX
  5
27D
330
257
100
AcDbEntity
  8
3D-EQPM
100
AcDbFaceRecord
 10
0.0
 20
0.0
 30
0.0
 70
   128
 71
    15
 72
    16
 73
   -17
 74
   -26
  0
VERTEX
  5
27E
330
257
100
AcDbEntity
  8
3D-EQPM
100
AcDbFaceRecord
 10
0.0
 20
0.0
 30
0.0
 70
   128
 71
   -26
 72
    18
 73
   -19
 74
    25
  0
VERTEX
  5
27F
330
257
100
AcDbEntity
  8
3D-EQPM
100
AcDbFaceRecord
 10
0.0
 20
0.0
 30
0.0
 70
   128
 71
    13
 72
    14
 73
   -15
 74
   -26
  0
VERTEX
  5
280
330
257
100
AcDbEntity
  8
3D-EQPM
100
AcDbFaceRecord
 10
0.0
 20
0.0
 30
0.0
 70
   128
 71
   -13
 72
    26
 73
   -27
 74
    12
  0
VERTEX
  5
281
330
257
100
AcDbEntity
  8
3D-EQPM
100
AcDbFaceRecord
 10
0.0
 20
0.0
 30
0.0
 70
   128
 71
    17
 72
   -18
 73
   -26
  0
VERTEX
  5
282
330
257
100
AcDbEntity
  8
3D-EQPM
100
AcDbFaceRecord
 10
0.0
 20
0.0
 30
0.0
 70
   128
 71
    27
 72
   -28
 73
   -12
  0
VERTEX
  5
283
330
257
100
AcDbEntity
  8
3D-EQPM
100
AcDbFaceRecord
 10
0.0
 20
0.0
 30
0.0
 70
   128
 71
     5
 72
    -6
 73
    29
 74
   -30
  0
VERTEX
  5
284
330
257
100
AcDbEntity
  8
3D-EQPM
100
AcDbFaceRecord
 10
0.0
 20
0.0
 30
0.0
 70
   128
 71
     9
 72
    10
 73
   -11
 74
   -29
  0
VERTEX
  5
285
330
257
100
AcDbEntity
  8
3D-EQPM
100
AcDbFaceRecord
 10
0.0
 20
0.0
 30
0.0
 70
   128
 71
     7
 72
     8
 73
    -9
 74
   -29
  0
VERTEX
  5
286
330
257
100
AcDbEntity
  8
3D-EQPM
100
AcDbFaceRecord
 10
0.0
 20
0.0
 30
0.0
 70
   128
 71
    28
 72
   -29
 73
    11
 74
   -12
  0
VERTEX
  5
287
330
257
100
AcDbEntity
  8
3D-EQPM
100
AcDbFaceRecord
 10
0.0
 20
0.0
 30
0.0
 70
   128
 71
   -29
 72
     6
 73
    -7
  0
SEQEND
  5
288
330
257
100
AcDbEntity
  8
3D-EQPM
  0
POLYLINE
  5
289
330
80
100
AcDbEntity
  8
3D-EQPM
100
AcDbPolyFaceMesh
 66
     1
 10
0.0
 20
0.0
 30
0.0
 70
    64
 71
    31
 72
    18
1001
REVIT
1002
{
1070
     4
1000
2544
1002
}
1002
{
1070
     3
1000
6341
1002
}
  0
VERTEX
  5
28A
330
289
100
AcDbEntity
  8
3D-EQPM
100
AcDbVertex
100
AcDbPolyFaceMeshVertex
 10
-0.8125000298023222
 20
1.031249999999999
 30
0.0000000000012113
 70
   192
  0
VERTEX
  5
28B
330
289
100
AcDbEntity
  8
3D-EQPM
100
AcDbVertex
100
AcDbPolyFaceMeshVertex
 10
-0.9062500298023222
 20
1.031249999999999
 30
0.0000000000012116
 70
   192
  0
VERTEX
  5
28C
330
289
100
AcDbEntity
  8
3D-EQPM
100
AcDbVertex
100
AcDbPolyFaceMeshVertex
 10
-0.9062500298023222
 20
1.031249999999999
 30
0.1659228466451168
 70
   192
  0
VERTEX
  5
28D
330
289
100
AcDbEntity
  8
3D-EQPM
100
AcDbVertex
100
AcDbPolyFaceMeshVertex
 10
-0.2544677183032035
 20
1.031249999999999
 30
0.3903494775295257
 70
   192
  0
VERTEX
  5
28E
330
289
100
AcDbEntity
  8
3D-EQPM
100
AcDbVertex
100
AcDbPolyFaceMeshVertex
 10
-0.2544677183032035
 20
1.031249999999999
 30
0.4374999850988388
 70
   192
  0
VERTEX
  5
28F
330
289
100
AcDbEntity
  8
3D-EQPM
100
AcDbVertex
100
AcDbPolyFaceMeshVertex
 10
0.2544677183032035
 20
1.031249999999999
 30
0.4374999850988388
 70
   192
  0
VERTEX
  5
290
330
289
100
AcDbEntity
  8
3D-EQPM
100
AcDbVertex
100
AcDbPolyFaceMeshVertex
 10
0.2544677183032035
 20
1.031249999999999
 30
0.3903494775295257
 70
   192
  0
VERTEX
  5
291
330
289
100
AcDbEntity
  8
3D-EQPM
100
AcDbVertex
100
AcDbPolyFaceMeshVertex
 10
0.9062500298023222
 20
1.031249999999999
 30
0.1659228466451168
 70
   192
  0
VERTEX
  5
292
330
289
100
AcDbEntity
  8
3D-EQPM
100
AcDbVertex
100
AcDbPolyFaceMeshVertex
 10
0.9062500298023222
 20
1.031249999999999
 30
0.0000000000012058
 70
   192
  0
VERTEX
  5
293
330
289
100
AcDbEntity
  8
3D-EQPM
100
AcDbVertex
100
AcDbPolyFaceMeshVertex
 10
0.8125000298023222
 20
1.031249999999999
 30
0.0000000000012061
 70
   192
  0
VERTEX
  5
294
330
289
100
AcDbEntity
  8
3D-EQPM
100
AcDbVertex
100
AcDbPolyFaceMeshVertex
 10
0.8125000298023222
 20
1.031249999999999
 30
0.0530172195285559
 70
   192
  0
VERTEX
  5
295
330
289
100
AcDbEntity
  8
3D-EQPM
100
AcDbVertex
100
AcDbPolyFaceMeshVertex
 10
0.6843131035566329
 20
1.031249999999999
 30
0.1104782223701477
 70
   192
  0
VERTEX
  5
296
330
289
100
AcDbEntity
  8
3D-EQPM
100
AcDbVertex
100
AcDbPolyFaceMeshVertex
 10
0.5520982593297958
 20
1.031249999999999
 30
0.1579426936805248
 70
   192
  0
VERTEX
  5
297
330
289
100
AcDbEntity
  8
3D-EQPM
100
AcDbVertex
100
AcDbPolyFaceMeshVertex
 10
0.5727388858795166
 20
1.031249999999999
 30
0.2206177935004234
 70
   192
  0
VERTEX
  5
298
330
289
100
AcDbEntity
  8
3D-EQPM
100
AcDbVertex
100
AcDbPolyFaceMeshVertex
 10
0.4750510901212692
 20
1.031249999999999
 30
0.2498006522655487
 70
   192
  0
VERTEX
  5
299
330
289
100
AcDbEntity
  8
3D-EQPM
100
AcDbVertex
100
AcDbPolyFaceMeshVertex
 10
0.3758903592824935
 20
1.031249999999999
 30
0.2735008969902992
 70
   192
  0
VERTEX
  5
29A
330
289
100
AcDbEntity
  8
3D-EQPM
100
AcDbVertex
100
AcDbPolyFaceMeshVertex
 10
0.3619477450847625
 20
1.031249999999999
 30
0.2070315778255462
 70
   192
  0
VERTEX
  5
29B
330
289
100
AcDbEntity
  8
3D-EQPM
100
AcDbVertex
100
AcDbPolyFaceMeshVertex
 10
0.2516712024807929
 20
1.031249999999999
 30
0.225783996284008
 70
   192
  0
VERTEX
  5
29C
330
289
100
AcDbEntity
  8
3D-EQPM
100
AcDbVertex
100
AcDbPolyFaceMeshVertex
 10
0.1404553726315498
 20
1.031249999999999
 30
0.2377675026655197
 70
   192
  0
VERTEX
  5
29D
330
289
100
AcDbEntity
  8
3D-EQPM
100
AcDbVertex
100
AcDbPolyFaceMeshVertex
 10
0.1404553726315498
 20
1.031249999999999
 30
0.3071049079298973
 70
   192
  0
VERTEX
  5
29E
330
289
100
AcDbEntity
  8
3D-EQPM
100
AcDbVertex
100
AcDbPolyFaceMeshVertex
 10
0.0000000000002348
 20
1.031249999999999
 30
0.3124999925494194
 70
   192
  0
VERTEX
  5
29F
330
289
100
AcDbEntity
  8
3D-EQPM
100
AcDbVertex
100
AcDbPolyFaceMeshVertex
 10
-0.1404553726315498
 20
1.031249999999999
 30
0.3071049079298973
 70
   192
  0
VERTEX
  5
2A0
330
289
100
AcDbEntity
  8
3D-EQPM
100
AcDbVertex
100
AcDbPolyFaceMeshVertex
 10
-0.1404553726315498
 20
1.031249999999999
 30
0.2377675026655197
 70
   192
  0
VERTEX
  5
2A1
330
289
100
AcDbEntity
  8
3D-EQPM
100
AcDbVertex
100
AcDbPolyFaceMeshVertex
 10
-0.2516712024807929
 20
1.031249999999999
 30
0.225783996284008
 70
   192
  0
VERTEX
  5
2A2
330
289
100
AcDbEntity
  8
3D-EQPM
100
AcDbVertex
100
AcDbPolyFaceMeshVertex
 10
-0.3619477450847625
 20
1.031249999999999
 30
0.2070315778255462
 70
   192
  0
VERTEX
  5
2A3
330
289
100
AcDbEntity
  8
3D-EQPM
100
AcDbVertex
100
AcDbPolyFaceMeshVertex
 10
-0.3758903592824935
 20
1.031249999999999
 30
0.2735008969902992
 70
   192
  0
VERTEX
  5
2A4
330
289
100
AcDbEntity
  8
3D-EQPM
100
AcDbVertex
100
AcDbPolyFaceMeshVertex
 10
-0.4750510901212692
 20
1.031249999999999
 30
0.2498006522655487
 70
   192
  0
VERTEX
  5
2A5
330
289
100
AcDbEntity
  8
3D-EQPM
100
AcDbVertex
100
AcDbPolyFaceMeshVertex
 10
-0.5727388858795166
 20
1.031249999999999
 30
0.2206177935004234
 70
   192
  0
VERTEX
  5
2A6
330
289
100
AcDbEntity
  8
3D-EQPM
100
AcDbVertex
100
AcDbPolyFaceMeshVertex
 10
-0.5520982593297958
 20
1.031249999999999
 30
0.1579426936805248
 70
   192
  0
VERTEX
  5
2A7
330
289
100
AcDbEntity
  8
3D-EQPM
100
AcDbVertex
100
AcDbPolyFaceMeshVertex
 10
-0.6843131035566329
 20
1.031249999999999
 30
0.1104782223701477
 70
   192
  0
VERTEX
  5
2A8
330
289
100
AcDbEntity
  8
3D-EQPM
100
AcDbVertex
100
AcDbPolyFaceMeshVertex
 10
-0.8125000298023222
 20
1.031249999999999
 30
0.0530172195285559
 70
   192
  0
VERTEX
  5
2A9
330
289
100
AcDbEntity
  8
3D-EQPM
100
AcDbFaceRecord
 10
0.0
 20
0.0
 30
0.0
 70
   128
 71
   -20
 72
     6
 73
    -7
 74
   -18
  0
VERTEX
  5
2AA
330
289
100
AcDbEntity
  8
3D-EQPM
100
AcDbFaceRecord
 10
0.0
 20
0.0
 30
0.0
 70
   128
 71
    -6
 72
    20
 73
   -21
 74
     5
  0
VERTEX
  5
2AB
330
289
100
AcDbEntity
  8
3D-EQPM
100
AcDbFaceRecord
 10
0.0
 20
0.0
 30
0.0
 70
   128
 71
    16
 72
    17
 73
   -18
 74
    -7
  0
VERTEX
  5
2AC
330
289
100
AcDbEntity
  8
3D-EQPM
100
AcDbFaceRecord
 10
0.0
 20
0.0
 30
0.0
 70
   128
 71
   -16
 72
    -7
 73
    15
  0
VERTEX
  5
2AD
330
289
100
AcDbEntity
  8
3D-EQPM
100
AcDbFaceRecord
 10
0.0
 20
0.0
 30
0.0
 70
   128
 71
    19
 72
   -20
 73
    18
  0
VERTEX
  5
2AE
330
289
100
AcDbEntity
  8
3D-EQPM
100
AcDbFaceRecord
 10
0.0
 20
0.0
 30
0.0
 70
   128
 71
    14
 72
   -15
 73
     7
 74
    -8
  0
VERTEX
  5
2AF
330
289
100
AcDbEntity
  8
3D-EQPM
100
AcDbFaceRecord
 10
0.0
 20
0.0
 30
0.0
 70
   128
 71
    -5
 72
    21
 73
   -22
 74
     4
  0
VERTEX
  5
2B0
330
289
100
AcDbEntity
  8
3D-EQPM
100
AcDbFaceRecord
 10
0.0
 20
0.0
 30
0.0
 70
   128
 71
    26
 72
   -27
 73
    -4
  0
VERTEX
  5
2B1
330
289
100
AcDbEntity
  8
3D-EQPM
100
AcDbFaceRecord
 10
0.0
 20
0.0
 30
0.0
 70
   128
 71
    -4
 72
   -22
 73
   -24
 74
   -26
  0
VERTEX
  5
2B2
330
289
100
AcDbEntity
  8
3D-EQPM
100
AcDbFaceRecord
 10
0.0
 20
0.0
 30
0.0
 70
   128
 71
    -4
 72
    27
 73
   -28
 74
     3
  0
VERTEX
  5
2B3
330
289
100
AcDbEntity
  8
3D-EQPM
100
AcDbFaceRecord
 10
0.0
 20
0.0
 30
0.0
 70
   128
 71
   -26
 72
    24
 73
    25
  0
VERTEX
  5
2B4
330
289
100
AcDbEntity
  8
3D-EQPM
100
AcDbFaceRecord
 10
0.0
 20
0.0
 30
0.0
 70
   128
 71
   -24
 72
    22
 73
    23
  0
VERTEX
  5
2B5
330
289
100
AcDbEntity
  8
3D-EQPM
100
AcDbFaceRecord
 10
0.0
 20
0.0
 30
0.0
 70
   128
 71
    12
 72
    13
 73
   -14
 74
    -8
  0
VERTEX
  5
2B6
330
289
100
AcDbEntity
  8
3D-EQPM
100
AcDbFaceRecord
 10
0.0
 20
0.0
 30
0.0
 70
   128
 71
     9
 72
    10
 73
   -11
 74
     8
  0
VERTEX
  5
2B7
330
289
100
AcDbEntity
  8
3D-EQPM
100
AcDbFaceRecord
 10
0.0
 20
0.0
 30
0.0
 70
   128
 71
    11
 72
   -12
 73
    -8
  0
VERTEX
  5
2B8
330
289
100
AcDbEntity
  8
3D-EQPM
100
AcDbFaceRecord
 10
0.0
 20
0.0
 30
0.0
 70
   128
 71
   -30
 72
    -3
 73
    28
 74
    29
  0
VERTEX
  5
2B9
330
289
100
AcDbEntity
  8
3D-EQPM
100
AcDbFaceRecord
 10
0.0
 20
0.0
 30
0.0
 70
   128
 71
    30
 72
   -31
 73
    -3
  0
VERTEX
  5
2BA
330
289
100
AcDbEntity
  8
3D-EQPM
100
AcDbFaceRecord
 10
0.0
 20
0.0
 30
0.0
 70
   128
 71
    31
 72
     1
 73
     2
 74
    -3
  0
SEQEND
  5
2BB
330
289
100
AcDbEntity
  8
3D-EQPM
  0
POLYLINE
  5
2BC
330
80
100
AcDbEntity
  8
3D-EQPM
100
AcDbPolyFaceMesh
 66
     1
 10
0.0
 20
0.0
 30
0.0
 70
    64
 71
     4
 72
     1
1001
REVIT
1002
{
1070
     4
1000
2544
1002
}
1002
{
1070
     3
1000
6341
1002
}
  0
VERTEX
  5
2BD
330
2BC
100
AcDbEntity
  8
3D-EQPM
100
AcDbVertex
100
AcDbPolyFaceMeshVertex
 10
-0.8125000298023222
 20
-1.031249999999999
 30
0.0530172195285559
 70
   192
  0
VERTEX
  5
2BE
330
2BC
100
AcDbEntity
  8
3D-EQPM
100
AcDbVertex
100
AcDbPolyFaceMeshVertex
 10
-0.8125000298023222
 20
-1.031249999999999
 30
0.0000000000011828
 70
   192
  0
VERTEX
  5
2BF
330
2BC
100
AcDbEntity
  8
3D-EQPM
100
AcDbVertex
100
AcDbPolyFaceMeshVertex
 10
-0.8125000298023222
 20
1.031249999999999
 30
0.0000000000012113
 70
   192
  0
VERTEX
  5
2C0
330
2BC
100
AcDbEntity
  8
3D-EQPM
100
AcDbVertex
100
AcDbPolyFaceMeshVertex
 10
-0.8125000298023222
 20
1.031249999999999
 30
0.0530172195285559
 70
   192
  0
VERTEX
  5
2C1
330
2BC
100
AcDbEntity
  8
3D-EQPM
100
AcDbFaceRecord
 10
0.0
 20
0.0
 30
0.0
 70
   128
 71
     4
 72
     1
 73
     2
 74
     3
  0
SEQEND
  5
2C2
330
2BC
100
AcDbEntity
  8
3D-EQPM
  0
POLYLINE
  5
2C3
330
80
100
AcDbEntity
  8
3D-EQPM
100
AcDbPolyFaceMesh
 66
     1
 10
0.0
 20
0.0
 30
0.0
 70
    64
 71
     6
 72
     2
1001
REVIT
1002
{
1070
     4
1000
2544
1002
}
1002
{
1070
     3
1000
6341
1002
}
  0
VERTEX
  5
2C4
330
2C3
100
AcDbEntity
  8
3D-EQPM
100
AcDbVertex
100
AcDbPolyFaceMeshVertex
 10
-0.5520982593297958
 20
1.031249999999999
 30
0.1579426936805248
 70
   192
  0
VERTEX
  5
2C5
330
2C3
100
AcDbEntity
  8
3D-EQPM
100
AcDbVertex
100
AcDbPolyFaceMeshVertex
 10
-0.6843131035566329
 20
1.031249999999999
 30
0.1104782223701477
 70
   192
  0
VERTEX
  5
2C6
330
2C3
100
AcDbEntity
  8
3D-EQPM
100
AcDbVertex
100
AcDbPolyFaceMeshVertex
 10
-0.8125000298023222
 20
1.031249999999999
 30
0.0530172195285559
 70
   192
  0
VERTEX
  5
2C7
330
2C3
100
AcDbEntity
  8
3D-EQPM
100
AcDbVertex
100
AcDbPolyFaceMeshVertex
 10
-0.8125000298023222
 20
-1.031249999999999
 30
0.0530172195285559
 70
   192
  0
VERTEX
  5
2C8
330
2C3
100
AcDbEntity
  8
3D-EQPM
100
AcDbVertex
100
AcDbPolyFaceMeshVertex
 10
-0.6843131035566329
 20
-1.031249999999999
 30
0.1104782223701477
 70
   192
  0
VERTEX
  5
2C9
330
2C3
100
AcDbEntity
  8
3D-EQPM
100
AcDbVertex
100
AcDbPolyFaceMeshVertex
 10
-0.5520982593297958
 20
-1.031249999999999
 30
0.1579426936805248
 70
   192
  0
VERTEX
  5
2CA
330
2C3
100
AcDbEntity
  8
3D-EQPM
100
AcDbFaceRecord
 10
0.0
 20
0.0
 30
0.0
 70
   128
 71
     4
 72
     3
 73
    -2
 74
     5
  0
VERTEX
  5
2CB
330
2C3
100
AcDbEntity
  8
3D-EQPM
100
AcDbFaceRecord
 10
0.0
 20
0.0
 30
0.0
 70
   128
 71
     1
 72
     6
 73
    -5
 74
     2
  0
SEQEND
  5
2CC
330
2C3
100
AcDbEntity
  8
3D-EQPM
  0
POLYLINE
  5
2CD
330
80
100
AcDbEntity
  8
3D-EQPM
100
AcDbPolyFaceMesh
 66
     1
 10
0.0
 20
0.0
 30
0.0
 70
    64
 71
     4
 72
     1
1001
REVIT
1002
{
1070
     4
1000
2544
1002
}
1002
{
1070
     3
1000
6341
1002
}
  0
VERTEX
  5
2CE
330
2CD
100
AcDbEntity
  8
3D-EQPM
100
AcDbVertex
100
AcDbPolyFaceMeshVertex
 10
-0.5727388858795166
 20
-1.031249999999999
 30
0.2206177935004234
 70
   192
  0
VERTEX
  5
2CF
330
2CD
100
AcDbEntity
  8
3D-EQPM
100
AcDbVertex
100
AcDbPolyFaceMeshVertex
 10
-0.5520982593297958
 20
-1.031249999999999
 30
0.1579426936805248
 70
   192
  0
VERTEX
  5
2D0
330
2CD
100
AcDbEntity
  8
3D-EQPM
100
AcDbVertex
100
AcDbPolyFaceMeshVertex
 10
-0.5520982593297958
 20
1.031249999999999
 30
0.1579426936805248
 70
   192
  0
VERTEX
  5
2D1
330
2CD
100
AcDbEntity
  8
3D-EQPM
100
AcDbVertex
100
AcDbPolyFaceMeshVertex
 10
-0.5727388858795166
 20
1.031249999999999
 30
0.2206177935004234
 70
   192
  0
VERTEX
  5
2D2
330
2CD
100
AcDbEntity
  8
3D-EQPM
100
AcDbFaceRecord
 10
0.0
 20
0.0
 30
0.0
 70
   128
 71
     1
 72
     2
 73
     3
 74
     4
  0
SEQEND
  5
2D3
330
2CD
100
AcDbEntity
  8
3D-EQPM
  0
POLYLINE
  5
2D4
330
80
100
AcDbEntity
  8
3D-EQPM
100
AcDbPolyFaceMesh
 66
     1
 10
0.0
 20
0.0
 30
0.0
 70
    64
 71
     6
 72
     2
1001
REVIT
1002
{
1070
     4
1000
2544
1002
}
1002
{
1070
     3
1000
6341
1002
}
  0
VERTEX
  5
2D5
330
2D4
100
AcDbEntity
  8
3D-EQPM
100
AcDbVertex
100
AcDbPolyFaceMeshVertex
 10
-0.3758903592824935
 20
1.031249999999999
 30
0.2735008969902992
 70
   192
  0
VERTEX
  5
2D6
330
2D4
100
AcDbEntity
  8
3D-EQPM
100
AcDbVertex
100
AcDbPolyFaceMeshVertex
 10
-0.4750510901212692
 20
1.031249999999999
 30
0.2498006522655487
 70
   192
  0
VERTEX
  5
2D7
330
2D4
100
AcDbEntity
  8
3D-EQPM
100
AcDbVertex
100
AcDbPolyFaceMeshVertex
 10
-0.5727388858795166
 20
1.031249999999999
 30
0.2206177935004234
 70
   192
  0
VERTEX
  5
2D8
330
2D4
100
AcDbEntity
  8
3D-EQPM
100
AcDbVertex
100
AcDbPolyFaceMeshVertex
 10
-0.5727388858795166
 20
-1.031249999999999
 30
0.2206177935004234
 70
   192
  0
VERTEX
  5
2D9
330
2D4
100
AcDbEntity
  8
3D-EQPM
100
AcDbVertex
100
AcDbPolyFaceMeshVertex
 10
-0.4750510901212692
 20
-1.031249999999999
 30
0.2498006522655487
 70
   192
  0
VERTEX
  5
2DA
330
2D4
100
AcDbEntity
  8
3D-EQPM
100
AcDbVertex
100
AcDbPolyFaceMeshVertex
 10
-0.3758903592824935
 20
-1.031249999999999
 30
0.2735008969902992
 70
   192
  0
VERTEX
  5
2DB
330
2D4
100
AcDbEntity
  8
3D-EQPM
100
AcDbFaceRecord
 10
0.0
 20
0.0
 30
0.0
 70
   128
 71
     4
 72
     3
 73
    -2
 74
     5
  0
VERTEX
  5
2DC
330
2D4
100
AcDbEntity
  8
3D-EQPM
100
AcDbFaceRecord
 10
0.0
 20
0.0
 30
0.0
 70
   128
 71
     1
 72
     6
 73
    -5
 74
     2
  0
SEQEND
  5
2DD
330
2D4
100
AcDbEntity
  8
3D-EQPM
  0
POLYLINE
  5
2DE
330
80
100
AcDbEntity
  8
3D-EQPM
100
AcDbPolyFaceMesh
 66
     1
 10
0.0
 20
0.0
 30
0.0
 70
    64
 71
     4
 72
     1
1001
REVIT
1002
{
1070
     4
1000
2544
1002
}
1002
{
1070
     3
1000
6341
1002
}
  0
VERTEX
  5
2DF
330
2DE
100
AcDbEntity
  8
3D-EQPM
100
AcDbVertex
100
AcDbPolyFaceMeshVertex
 10
-0.3619477450847625
 20
-1.031249999999999
 30
0.2070315778255462
 70
   192
  0
VERTEX
  5
2E0
330
2DE
100
AcDbEntity
  8
3D-EQPM
100
AcDbVertex
100
AcDbPolyFaceMeshVertex
 10
-0.3758903592824935
 20
-1.031249999999999
 30
0.2735008969902992
 70
   192
  0
VERTEX
  5
2E1
330
2DE
100
AcDbEntity
  8
3D-EQPM
100
AcDbVertex
100
AcDbPolyFaceMeshVertex
 10
-0.3758903592824935
 20
1.031249999999999
 30
0.2735008969902992
 70
   192
  0
VERTEX
  5
2E2
330
2DE
100
AcDbEntity
  8
3D-EQPM
100
AcDbVertex
100
AcDbPolyFaceMeshVertex
 10
-0.3619477450847625
 20
1.031249999999999
 30
0.2070315778255462
 70
   192
  0
VERTEX
  5
2E3
330
2DE
100
AcDbEntity
  8
3D-EQPM
100
AcDbFaceRecord
 10
0.0
 20
0.0
 30
0.0
 70
   128
 71
     4
 72
     1
 73
     2
 74
     3
  0
SEQEND
  5
2E4
330
2DE
100
AcDbEntity
  8
3D-EQPM
  0
POLYLINE
  5
2E5
330
80
100
AcDbEntity
  8
3D-EQPM
100
AcDbPolyFaceMesh
 66
     1
 10
0.0
 20
0.0
 30
0.0
 70
    64
 71
     6
 72
     2
1001
REVIT
1002
{
1070
     4
1000
2544
1002
}
1002
{
1070
     3
1000
6341
1002
}
  0
VERTEX
  5
2E6
330
2E5
100
AcDbEntity
  8
3D-EQPM
100
AcDbVertex
100
AcDbPolyFaceMeshVertex
 10
-0.1404553726315498
 20
1.031249999999999
 30
0.2377675026655197
 70
   192
  0
VERTEX
  5
2E7
330
2E5
100
AcDbEntity
  8
3D-EQPM
100
AcDbVertex
100
AcDbPolyFaceMeshVertex
 10
-0.2516712024807929
 20
1.031249999999999
 30
0.225783996284008
 70
   192
  0
VERTEX
  5
2E8
330
2E5
100
AcDbEntity
  8
3D-EQPM
100
AcDbVertex
100
AcDbPolyFaceMeshVertex
 10
-0.3619477450847625
 20
1.031249999999999
 30
0.2070315778255462
 70
   192
  0
VERTEX
  5
2E9
330
2E5
100
AcDbEntity
  8
3D-EQPM
100
AcDbVertex
100
AcDbPolyFaceMeshVertex
 10
-0.3619477450847625
 20
-1.031249999999999
 30
0.2070315778255462
 70
   192
  0
VERTEX
  5
2EA
330
2E5
100
AcDbEntity
  8
3D-EQPM
100
AcDbVertex
100
AcDbPolyFaceMeshVertex
 10
-0.2516712024807929
 20
-1.031249999999999
 30
0.225783996284008
 70
   192
  0
VERTEX
  5
2EB
330
2E5
100
AcDbEntity
  8
3D-EQPM
100
AcDbVertex
100
AcDbPolyFaceMeshVertex
 10
-0.1404553726315498
 20
-1.031249999999999
 30
0.2377675026655197
 70
   192
  0
VERTEX
  5
2EC
330
2E5
100
AcDbEntity
  8
3D-EQPM
100
AcDbFaceRecord
 10
0.0
 20
0.0
 30
0.0
 70
   128
 71
     4
 72
     3
 73
    -2
 74
     5
  0
VERTEX
  5
2ED
330
2E5
100
AcDbEntity
  8
3D-EQPM
100
AcDbFaceRecord
 10
0.0
 20
0.0
 30
0.0
 70
   128
 71
     1
 72
     6
 73
    -5
 74
     2
  0
SEQEND
  5
2EE
330
2E5
100
AcDbEntity
  8
3D-EQPM
  0
POLYLINE
  5
2EF
330
80
100
AcDbEntity
  8
3D-EQPM
100
AcDbPolyFaceMesh
 66
     1
 10
0.0
 20
0.0
 30
0.0
 70
    64
 71
     4
 72
     1
1001
REVIT
1002
{
1070
     4
1000
2544
1002
}
1002
{
1070
     3
1000
6341
1002
}
  0
VERTEX
  5
2F0
330
2EF
100
AcDbEntity
  8
3D-EQPM
100
AcDbVertex
100
AcDbPolyFaceMeshVertex
 10
-0.1404553726315498
 20
-1.031249999999999
 30
0.3071049079298973
 70
   192
  0
VERTEX
  5
2F1
330
2EF
100
AcDbEntity
  8
3D-EQPM
100
AcDbVertex
100
AcDbPolyFaceMeshVertex
 10
-0.1404553726315498
 20
-1.031249999999999
 30
0.2377675026655197
 70
   192
  0
VERTEX
  5
2F2
330
2EF
100
AcDbEntity
  8
3D-EQPM
100
AcDbVertex
100
AcDbPolyFaceMeshVertex
 10
-0.1404553726315498
 20
1.031249999999999
 30
0.2377675026655197
 70
   192
  0
VERTEX
  5
2F3
330
2EF
100
AcDbEntity
  8
3D-EQPM
100
AcDbVertex
100
AcDbPolyFaceMeshVertex
 10
-0.1404553726315498
 20
1.031249999999999
 30
0.3071049079298973
 70
   192
  0
VERTEX
  5
2F4
330
2EF
100
AcDbEntity
  8
3D-EQPM
100
AcDbFaceRecord
 10
0.0
 20
0.0
 30
0.0
 70
   128
 71
     4
 72
     1
 73
     2
 74
     3
  0
SEQEND
  5
2F5
330
2EF
100
AcDbEntity
  8
3D-EQPM
  0
POLYLINE
  5
2F6
330
80
100
AcDbEntity
  8
3D-EQPM
100
AcDbPolyFaceMesh
 66
     1
 10
0.0
 20
0.0
 30
0.0
 70
    64
 71
     6
 72
     2
1001
REVIT
1002
{
1070
     4
1000
2544
1002
}
1002
{
1070
     3
1000
6341
1002
}
  0
VERTEX
  5
2F7
330
2F6
100
AcDbEntity
  8
3D-EQPM
100
AcDbVertex
100
AcDbPolyFaceMeshVertex
 10
0.1404553726315498
 20
1.031249999999999
 30
0.3071049079298973
 70
   192
  0
VERTEX
  5
2F8
330
2F6
100
AcDbEntity
  8
3D-EQPM
100
AcDbVertex
100
AcDbPolyFaceMeshVertex
 10
0.0000000000002234
 20
1.031249999999999
 30
0.3124999925494194
 70
   192
  0
VERTEX
  5
2F9
330
2F6
100
AcDbEntity
  8
3D-EQPM
100
AcDbVertex
100
AcDbPolyFaceMeshVertex
 10
-0.1404553726315498
 20
1.031249999999999
 30
0.3071049079298973
 70
   192
  0
VERTEX
  5
2FA
330
2F6
100
AcDbEntity
  8
3D-EQPM
100
AcDbVertex
100
AcDbPolyFaceMeshVertex
 10
-0.1404553726315498
 20
-1.031249999999999
 30
0.3071049079298973
 70
   192
  0
VERTEX
  5
2FB
330
2F6
100
AcDbEntity
  8
3D-EQPM
100
AcDbVertex
100
AcDbPolyFaceMeshVertex
 10
0.0000000000002234
 20
-1.031249999999999
 30
0.3124999925494194
 70
   192
  0
VERTEX
  5
2FC
330
2F6
100
AcDbEntity
  8
3D-EQPM
100
AcDbVertex
100
AcDbPolyFaceMeshVertex
 10
0.1404553726315498
 20
-1.031249999999999
 30
0.3071049079298973
 70
   192
  0
VERTEX
  5
2FD
330
2F6
100
AcDbEntity
  8
3D-EQPM
100
AcDbFaceRecord
 10
0.0
 20
0.0
 30
0.0
 70
   128
 71
     4
 72
     3
 73
    -2
 74
     5
  0
VERTEX
  5
2FE
330
2F6
100
AcDbEntity
  8
3D-EQPM
100
AcDbFaceRecord
 10
0.0
 20
0.0
 30
0.0
 70
   128
 71
     1
 72
     6
 73
    -5
 74
     2
  0
SEQEND
  5
2FF
330
2F6
100
AcDbEntity
  8
3D-EQPM
  0
POLYLINE
  5
300
330
80
100
AcDbEntity
  8
3D-EQPM
100
AcDbPolyFaceMesh
 66
     1
 10
0.0
 20
0.0
 30
0.0
 70
    64
 71
     4
 72
     1
1001
REVIT
1002
{
1070
     4
1000
2544
1002
}
1002
{
1070
     3
1000
6341
1002
}
  0
VERTEX
  5
301
330
300
100
AcDbEntity
  8
3D-EQPM
100
AcDbVertex
100
AcDbPolyFaceMeshVertex
 10
0.1404553726315498
 20
-1.031249999999999
 30
0.2377675026655197
 70
   192
  0
VERTEX
  5
302
330
300
100
AcDbEntity
  8
3D-EQPM
100
AcDbVertex
100
AcDbPolyFaceMeshVertex
 10
0.1404553726315498
 20
-1.031249999999999
 30
0.3071049079298973
 70
   192
  0
VERTEX
  5
303
330
300
100
AcDbEntity
  8
3D-EQPM
100
AcDbVertex
100
AcDbPolyFaceMeshVertex
 10
0.1404553726315498
 20
1.031249999999999
 30
0.3071049079298973
 70
   192
  0
VERTEX
  5
304
330
300
100
AcDbEntity
  8
3D-EQPM
100
AcDbVertex
100
AcDbPolyFaceMeshVertex
 10
0.1404553726315498
 20
1.031249999999999
 30
0.2377675026655197
 70
   192
  0
VERTEX
  5
305
330
300
100
AcDbEntity
  8
3D-EQPM
100
AcDbFaceRecord
 10
0.0
 20
0.0
 30
0.0
 70
   128
 71
     4
 72
     1
 73
     2
 74
     3
  0
SEQEND
  5
306
330
300
100
AcDbEntity
  8
3D-EQPM
  0
POLYLINE
  5
307
330
80
100
AcDbEntity
  8
3D-EQPM
100
AcDbPolyFaceMesh
 66
     1
 10
0.0
 20
0.0
 30
0.0
 70
    64
 71
     6
 72
     2
1001
REVIT
1002
{
1070
     4
1000
2544
1002
}
1002
{
1070
     3
1000
6341
1002
}
  0
VERTEX
  5
308
330
307
100
AcDbEntity
  8
3D-EQPM
100
AcDbVertex
100
AcDbPolyFaceMeshVertex
 10
0.3619477450847625
 20
1.031249999999999
 30
0.2070315778255462
 70
   192
  0
VERTEX
  5
309
330
307
100
AcDbEntity
  8
3D-EQPM
100
AcDbVertex
100
AcDbPolyFaceMeshVertex
 10
0.2516712024807929
 20
1.031249999999999
 30
0.225783996284008
 70
   192
  0
VERTEX
  5
30A
330
307
100
AcDbEntity
  8
3D-EQPM
100
AcDbVertex
100
AcDbPolyFaceMeshVertex
 10
0.1404553726315498
 20
1.031249999999999
 30
0.2377675026655197
 70
   192
  0
VERTEX
  5
30B
330
307
100
AcDbEntity
  8
3D-EQPM
100
AcDbVertex
100
AcDbPolyFaceMeshVertex
 10
0.1404553726315498
 20
-1.031249999999999
 30
0.2377675026655197
 70
   192
  0
VERTEX
  5
30C
330
307
100
AcDbEntity
  8
3D-EQPM
100
AcDbVertex
100
AcDbPolyFaceMeshVertex
 10
0.2516712024807929
 20
-1.031249999999999
 30
0.225783996284008
 70
   192
  0
VERTEX
  5
30D
330
307
100
AcDbEntity
  8
3D-EQPM
100
AcDbVertex
100
AcDbPolyFaceMeshVertex
 10
0.3619477450847625
 20
-1.031249999999999
 30
0.2070315778255462
 70
   192
  0
VERTEX
  5
30E
330
307
100
AcDbEntity
  8
3D-EQPM
100
AcDbFaceRecord
 10
0.0
 20
0.0
 30
0.0
 70
   128
 71
     4
 72
     3
 73
    -2
 74
     5
  0
VERTEX
  5
30F
330
307
100
AcDbEntity
  8
3D-EQPM
100
AcDbFaceRecord
 10
0.0
 20
0.0
 30
0.0
 70
   128
 71
     1
 72
     6
 73
    -5
 74
     2
  0
SEQEND
  5
310
330
307
100
AcDbEntity
  8
3D-EQPM
  0
POLYLINE
  5
311
330
80
100
AcDbEntity
  8
3D-EQPM
100
AcDbPolyFaceMesh
 66
     1
 10
0.0
 20
0.0
 30
0.0
 70
    64
 71
     4
 72
     1
1001
REVIT
1002
{
1070
     4
1000
2544
1002
}
1002
{
1070
     3
1000
6341
1002
}
  0
VERTEX
  5
312
330
311
100
AcDbEntity
  8
3D-EQPM
100
AcDbVertex
100
AcDbPolyFaceMeshVertex
 10
0.3758903592824935
 20
-1.031249999999999
 30
0.2735008969902992
 70
   192
  0
VERTEX
  5
313
330
311
100
AcDbEntity
  8
3D-EQPM
100
AcDbVertex
100
AcDbPolyFaceMeshVertex
 10
0.3619477450847625
 20
-1.031249999999999
 30
0.2070315778255462
 70
   192
  0
VERTEX
  5
314
330
311
100
AcDbEntity
  8
3D-EQPM
100
AcDbVertex
100
AcDbPolyFaceMeshVertex
 10
0.3619477450847625
 20
1.031249999999999
 30
0.2070315778255462
 70
   192
  0
VERTEX
  5
315
330
311
100
AcDbEntity
  8
3D-EQPM
100
AcDbVertex
100
AcDbPolyFaceMeshVertex
 10
0.3758903592824935
 20
1.031249999999999
 30
0.2735008969902992
 70
   192
  0
VERTEX
  5
316
330
311
100
AcDbEntity
  8
3D-EQPM
100
AcDbFaceRecord
 10
0.0
 20
0.0
 30
0.0
 70
   128
 71
     1
 72
     2
 73
     3
 74
     4
  0
SEQEND
  5
317
330
311
100
AcDbEntity
  8
3D-EQPM
  0
POLYLINE
  5
318
330
80
100
AcDbEntity
  8
3D-EQPM
100
AcDbPolyFaceMesh
 66
     1
 10
0.0
 20
0.0
 30
0.0
 70
    64
 71
     6
 72
     2
1001
REVIT
1002
{
1070
     4
1000
2544
1002
}
1002
{
1070
     3
1000
6341
1002
}
  0
VERTEX
  5
319
330
318
100
AcDbEntity
  8
3D-EQPM
100
AcDbVertex
100
AcDbPolyFaceMeshVertex
 10
0.5727388858795166
 20
1.031249999999999
 30
0.2206177935004234
 70
   192
  0
VERTEX
  5
31A
330
318
100
AcDbEntity
  8
3D-EQPM
100
AcDbVertex
100
AcDbPolyFaceMeshVertex
 10
0.4750510901212692
 20
1.031249999999999
 30
0.2498006522655487
 70
   192
  0
VERTEX
  5
31B
330
318
100
AcDbEntity
  8
3D-EQPM
100
AcDbVertex
100
AcDbPolyFaceMeshVertex
 10
0.3758903592824935
 20
1.031249999999999
 30
0.2735008969902992
 70
   192
  0
VERTEX
  5
31C
330
318
100
AcDbEntity
  8
3D-EQPM
100
AcDbVertex
100
AcDbPolyFaceMeshVertex
 10
0.3758903592824935
 20
-1.031249999999999
 30
0.2735008969902992
 70
   192
  0
VERTEX
  5
31D
330
318
100
AcDbEntity
  8
3D-EQPM
100
AcDbVertex
100
AcDbPolyFaceMeshVertex
 10
0.4750510901212692
 20
-1.031249999999999
 30
0.2498006522655487
 70
   192
  0
VERTEX
  5
31E
330
318
100
AcDbEntity
  8
3D-EQPM
100
AcDbVertex
100
AcDbPolyFaceMeshVertex
 10
0.5727388858795166
 20
-1.031249999999999
 30
0.2206177935004234
 70
   192
  0
VERTEX
  5
31F
330
318
100
AcDbEntity
  8
3D-EQPM
100
AcDbFaceRecord
 10
0.0
 20
0.0
 30
0.0
 70
   128
 71
     4
 72
     3
 73
    -2
 74
     5
  0
VERTEX
  5
320
330
318
100
AcDbEntity
  8
3D-EQPM
100
AcDbFaceRecord
 10
0.0
 20
0.0
 30
0.0
 70
   128
 71
     1
 72
     6
 73
    -5
 74
     2
  0
SEQEND
  5
321
330
318
100
AcDbEntity
  8
3D-EQPM
  0
POLYLINE
  5
322
330
80
100
AcDbEntity
  8
3D-EQPM
100
AcDbPolyFaceMesh
 66
     1
 10
0.0
 20
0.0
 30
0.0
 70
    64
 71
     4
 72
     1
1001
REVIT
1002
{
1070
     4
1000
2544
1002
}
1002
{
1070
     3
1000
6341
1002
}
  0
VERTEX
  5
323
330
322
100
AcDbEntity
  8
3D-EQPM
100
AcDbVertex
100
AcDbPolyFaceMeshVertex
 10
0.5520982593297958
 20
-1.031249999999999
 30
0.1579426936805248
 70
   192
  0
VERTEX
  5
324
330
322
100
AcDbEntity
  8
3D-EQPM
100
AcDbVertex
100
AcDbPolyFaceMeshVertex
 10
0.5727388858795166
 20
-1.031249999999999
 30
0.2206177935004234
 70
   192
  0
VERTEX
  5
325
330
322
100
AcDbEntity
  8
3D-EQPM
100
AcDbVertex
100
AcDbPolyFaceMeshVertex
 10
0.5727388858795166
 20
1.031249999999999
 30
0.2206177935004234
 70
   192
  0
VERTEX
  5
326
330
322
100
AcDbEntity
  8
3D-EQPM
100
AcDbVertex
100
AcDbPolyFaceMeshVertex
 10
0.5520982593297958
 20
1.031249999999999
 30
0.1579426936805248
 70
   192
  0
VERTEX
  5
327
330
322
100
AcDbEntity
  8
3D-EQPM
100
AcDbFaceRecord
 10
0.0
 20
0.0
 30
0.0
 70
   128
 71
     4
 72
     1
 73
     2
 74
     3
  0
SEQEND
  5
328
330
322
100
AcDbEntity
  8
3D-EQPM
  0
POLYLINE
  5
329
330
80
100
AcDbEntity
  8
3D-EQPM
100
AcDbPolyFaceMesh
 66
     1
 10
0.0
 20
0.0
 30
0.0
 70
    64
 71
     6
 72
     2
1001
REVIT
1002
{
1070
     4
1000
2544
1002
}
1002
{
1070
     3
1000
6341
1002
}
  0
VERTEX
  5
32A
330
329
100
AcDbEntity
  8
3D-EQPM
100
AcDbVertex
100
AcDbPolyFaceMeshVertex
 10
0.8125000298023222
 20
1.031249999999999
 30
0.0530172195285559
 70
   192
  0
VERTEX
  5
32B
330
329
100
AcDbEntity
  8
3D-EQPM
100
AcDbVertex
100
AcDbPolyFaceMeshVertex
 10
0.6843131035566329
 20
1.031249999999999
 30
0.1104782223701477
 70
   192
  0
VERTEX
  5
32C
330
329
100
AcDbEntity
  8
3D-EQPM
100
AcDbVertex
100
AcDbPolyFaceMeshVertex
 10
0.5520982593297958
 20
1.031249999999999
 30
0.1579426936805248
 70
   192
  0
VERTEX
  5
32D
330
329
100
AcDbEntity
  8
3D-EQPM
100
AcDbVertex
100
AcDbPolyFaceMeshVertex
 10
0.5520982593297958
 20
-1.031249999999999
 30
0.1579426936805248
 70
   192
  0
VERTEX
  5
32E
330
329
100
AcDbEntity
  8
3D-EQPM
100
AcDbVertex
100
AcDbPolyFaceMeshVertex
 10
0.6843131035566329
 20
-1.031249999999999
 30
0.1104782223701477
 70
   192
  0
VERTEX
  5
32F
330
329
100
AcDbEntity
  8
3D-EQPM
100
AcDbVertex
100
AcDbPolyFaceMeshVertex
 10
0.8125000298023222
 20
-1.031249999999999
 30
0.0530172195285559
 70
   192
  0
VERTEX
  5
330
330
329
100
AcDbEntity
  8
3D-EQPM
100
AcDbFaceRecord
 10
0.0
 20
0.0
 30
0.0
 70
   128
 71
     4
 72
     3
 73
    -2
 74
     5
  0
VERTEX
  5
331
330
329
100
AcDbEntity
  8
3D-EQPM
100
AcDbFaceRecord
 10
0.0
 20
0.0
 30
0.0
 70
   128
 71
     1
 72
     6
 73
    -5
 74
     2
  0
SEQEND
  5
332
330
329
100
AcDbEntity
  8
3D-EQPM
  0
POLYLINE
  5
333
330
80
100
AcDbEntity
  8
3D-EQPM
100
AcDbPolyFaceMesh
 66
     1
 10
0.0
 20
0.0
 30
0.0
 70
    64
 71
     4
 72
     1
1001
REVIT
1002
{
1070
     4
1000
2544
1002
}
1002
{
1070
     3
1000
6341
1002
}
  0
VERTEX
  5
334
330
333
100
AcDbEntity
  8
3D-EQPM
100
AcDbVertex
100
AcDbPolyFaceMeshVertex
 10
0.8125000298023222
 20
-1.031249999999999
 30
0.0000000000011776
 70
   192
  0
VERTEX
  5
335
330
333
100
AcDbEntity
  8
3D-EQPM
100
AcDbVertex
100
AcDbPolyFaceMeshVertex
 10
0.8125000298023222
 20
-1.031249999999999
 30
0.0530172195285559
 70
   192
  0
VERTEX
  5
336
330
333
100
AcDbEntity
  8
3D-EQPM
100
AcDbVertex
100
AcDbPolyFaceMeshVertex
 10
0.8125000298023222
 20
1.031249999999999
 30
0.0530172195285559
 70
   192
  0
VERTEX
  5
337
330
333
100
AcDbEntity
  8
3D-EQPM
100
AcDbVertex
100
AcDbPolyFaceMeshVertex
 10
0.8125000298023222
 20
1.031249999999999
 30
0.0000000000012061
 70
   192
  0
VERTEX
  5
338
330
333
100
AcDbEntity
  8
3D-EQPM
100
AcDbFaceRecord
 10
0.0
 20
0.0
 30
0.0
 70
   128
 71
     1
 72
     2
 73
     3
 74
     4
  0
SEQEND
  5
339
330
333
100
AcDbEntity
  8
3D-EQPM
  0
POLYLINE
  5
33A
330
80
100
AcDbEntity
  8
3D-EQPM
100
AcDbPolyFaceMesh
 66
     1
 10
0.0
 20
0.0
 30
0.0
 70
    64
 71
     4
 72
     1
1001
REVIT
1002
{
1070
     4
1000
2544
1002
}
1002
{
1070
     3
1000
6341
1002
}
  0
VERTEX
  5
33B
330
33A
100
AcDbEntity
  8
3D-EQPM
100
AcDbVertex
100
AcDbPolyFaceMeshVertex
 10
0.9062500298023222
 20
-1.031249999999999
 30
0.0000000000011773
 70
   192
  0
VERTEX
  5
33C
330
33A
100
AcDbEntity
  8
3D-EQPM
100
AcDbVertex
100
AcDbPolyFaceMeshVertex
 10
0.8125000298023222
 20
-1.031249999999999
 30
0.0000000000011776
 70
   192
  0
VERTEX
  5
33D
330
33A
100
AcDbEntity
  8
3D-EQPM
100
AcDbVertex
100
AcDbPolyFaceMeshVertex
 10
0.8125000298023222
 20
1.031249999999999
 30
0.0000000000012061
 70
   192
  0
VERTEX
  5
33E
330
33A
100
AcDbEntity
  8
3D-EQPM
100
AcDbVertex
100
AcDbPolyFaceMeshVertex
 10
0.9062500298023222
 20
1.031249999999999
 30
0.0000000000012058
 70
   192
  0
VERTEX
  5
33F
330
33A
100
AcDbEntity
  8
3D-EQPM
100
AcDbFaceRecord
 10
0.0
 20
0.0
 30
0.0
 70
   128
 71
     1
 72
     2
 73
     3
 74
     4
  0
SEQEND
  5
340
330
33A
100
AcDbEntity
  8
3D-EQPM
  0
POLYLINE
  5
341
330
80
100
AcDbEntity
  8
3D-EQPM
100
AcDbPolyFaceMesh
 66
     1
 10
0.0
 20
0.0
 30
0.0
 70
    64
 71
     4
 72
     1
1001
REVIT
1002
{
1070
     4
1000
2544
1002
}
1002
{
1070
     3
1000
6341
1002
}
  0
VERTEX
  5
342
330
341
100
AcDbEntity
  8
3D-EQPM
100
AcDbVertex
100
AcDbPolyFaceMeshVertex
 10
0.9062500298023222
 20
-1.031249999999999
 30
0.1659228466451168
 70
   192
  0
VERTEX
  5
343
330
341
100
AcDbEntity
  8
3D-EQPM
100
AcDbVertex
100
AcDbPolyFaceMeshVertex
 10
0.9062500298023222
 20
-1.031249999999999
 30
0.0000000000011773
 70
   192
  0
VERTEX
  5
344
330
341
100
AcDbEntity
  8
3D-EQPM
100
AcDbVertex
100
AcDbPolyFaceMeshVertex
 10
0.9062500298023222
 20
1.031249999999999
 30
0.0000000000012058
 70
   192
  0
VERTEX
  5
345
330
341
100
AcDbEntity
  8
3D-EQPM
100
AcDbVertex
100
AcDbPolyFaceMeshVertex
 10
0.9062500298023222
 20
1.031249999999999
 30
0.1659228466451168
 70
   192
  0
VERTEX
  5
346
330
341
100
AcDbEntity
  8
3D-EQPM
100
AcDbFaceRecord
 10
0.0
 20
0.0
 30
0.0
 70
   128
 71
     4
 72
     1
 73
     2
 74
     3
  0
SEQEND
  5
347
330
341
100
AcDbEntity
  8
3D-EQPM
  0
POLYLINE
  5
348
330
80
100
AcDbEntity
  8
3D-EQPM
100
AcDbPolyFaceMesh
 66
     1
 10
0.0
 20
0.0
 30
0.0
 70
    64
 71
     4
 72
     1
1001
REVIT
1002
{
1070
     4
1000
2544
1002
}
1002
{
1070
     3
1000
6341
1002
}
  0
VERTEX
  5
349
330
348
100
AcDbEntity
  8
3D-EQPM
100
AcDbVertex
100
AcDbPolyFaceMeshVertex
 10
0.2544677183032035
 20
-1.031249999999999
 30
0.3903494775295257
 70
   192
  0
VERTEX
  5
34A
330
348
100
AcDbEntity
  8
3D-EQPM
100
AcDbVertex
100
AcDbPolyFaceMeshVertex
 10
0.9062500298023222
 20
-1.031249999999999
 30
0.1659228466451168
 70
   192
  0
VERTEX
  5
34B
330
348
100
AcDbEntity
  8
3D-EQPM
100
AcDbVertex
100
AcDbPolyFaceMeshVertex
 10
0.9062500298023222
 20
1.031249999999999
 30
0.1659228466451168
 70
   192
  0
VERTEX
  5
34C
330
348
100
AcDbEntity
  8
3D-EQPM
100
AcDbVertex
100
AcDbPolyFaceMeshVertex
 10
0.2544677183032035
 20
1.031249999999999
 30
0.3903494775295257
 70
   192
  0
VERTEX
  5
34D
330
348
100
AcDbEntity
  8
3D-EQPM
100
AcDbFaceRecord
 10
0.0
 20
0.0
 30
0.0
 70
   128
 71
     4
 72
     1
 73
     2
 74
     3
  0
SEQEND
  5
34E
330
348
100
AcDbEntity
  8
3D-EQPM
  0
POLYLINE
  5
34F
330
80
100
AcDbEntity
  8
3D-EQPM
100
AcDbPolyFaceMesh
 66
     1
 10
0.0
 20
0.0
 30
0.0
 70
    64
 71
     4
 72
     1
1001
REVIT
1002
{
1070
     4
1000
2544
1002
}
1002
{
1070
     3
1000
6341
1002
}
  0
VERTEX
  5
350
330
34F
100
AcDbEntity
  8
3D-EQPM
100
AcDbVertex
100
AcDbPolyFaceMeshVertex
 10
0.2544677183032035
 20
-1.031249999999999
 30
0.4374999850988388
 70
   192
  0
VERTEX
  5
351
330
34F
100
AcDbEntity
  8
3D-EQPM
100
AcDbVertex
100
AcDbPolyFaceMeshVertex
 10
0.2544677183032035
 20
-1.031249999999999
 30
0.3903494775295257
 70
   192
  0
VERTEX
  5
352
330
34F
100
AcDbEntity
  8
3D-EQPM
100
AcDbVertex
100
AcDbPolyFaceMeshVertex
 10
0.2544677183032035
 20
1.031249999999999
 30
0.3903494775295257
 70
   192
  0
VERTEX
  5
353
330
34F
100
AcDbEntity
  8
3D-EQPM
100
AcDbVertex
100
AcDbPolyFaceMeshVertex
 10
0.2544677183032035
 20
1.031249999999999
 30
0.4374999850988388
 70
   192
  0
VERTEX
  5
354
330
34F
100
AcDbEntity
  8
3D-EQPM
100
AcDbFaceRecord
 10
0.0
 20
0.0
 30
0.0
 70
   128
 71
     1
 72
     2
 73
     3
 74
     4
  0
SEQEND
  5
355
330
34F
100
AcDbEntity
  8
3D-EQPM
  0
POLYLINE
  5
356
330
80
100
AcDbEntity
  8
3D-EQPM
100
AcDbPolyFaceMesh
 66
     1
 10
0.0
 20
0.0
 30
0.0
 70
    64
 71
     4
 72
     1
1001
REVIT
1002
{
1070
     4
1000
2544
1002
}
1002
{
1070
     3
1000
6341
1002
}
  0
VERTEX
  5
357
330
356
100
AcDbEntity
  8
3D-EQPM
100
AcDbVertex
100
AcDbPolyFaceMeshVertex
 10
-0.2544677183032035
 20
-1.031249999999999
 30
0.4374999850988388
 70
   192
  0
VERTEX
  5
358
330
356
100
AcDbEntity
  8
3D-EQPM
100
AcDbVertex
100
AcDbPolyFaceMeshVertex
 10
0.2544677183032035
 20
-1.031249999999999
 30
0.4374999850988388
 70
   192
  0
VERTEX
  5
359
330
356
100
AcDbEntity
  8
3D-EQPM
100
AcDbVertex
100
AcDbPolyFaceMeshVertex
 10
0.2544677183032035
 20
1.031249999999999
 30
0.4374999850988388
 70
   192
  0
VERTEX
  5
35A
330
356
100
AcDbEntity
  8
3D-EQPM
100
AcDbVertex
100
AcDbPolyFaceMeshVertex
 10
-0.2544677183032035
 20
1.031249999999999
 30
0.4374999850988388
 70
   192
  0
VERTEX
  5
35B
330
356
100
AcDbEntity
  8
3D-EQPM
100
AcDbFaceRecord
 10
0.0
 20
0.0
 30
0.0
 70
   128
 71
     1
 72
     2
 73
     3
 74
     4
  0
SEQEND
  5
35C
330
356
100
AcDbEntity
  8
3D-EQPM
  0
POLYLINE
  5
35D
330
80
100
AcDbEntity
  8
3D-EQPM
100
AcDbPolyFaceMesh
 66
     1
 10
0.0
 20
0.0
 30
0.0
 70
    64
 71
     4
 72
     1
1001
REVIT
1002
{
1070
     4
1000
2544
1002
}
1002
{
1070
     3
1000
6341
1002
}
  0
VERTEX
  5
35E
330
35D
100
AcDbEntity
  8
3D-EQPM
100
AcDbVertex
100
AcDbPolyFaceMeshVertex
 10
-0.2544677183032035
 20
-1.031249999999999
 30
0.3903494775295257
 70
   192
  0
VERTEX
  5
35F
330
35D
100
AcDbEntity
  8
3D-EQPM
100
AcDbVertex
100
AcDbPolyFaceMeshVertex
 10
-0.2544677183032035
 20
-1.031249999999999
 30
0.4374999850988388
 70
   192
  0
VERTEX
  5
360
330
35D
100
AcDbEntity
  8
3D-EQPM
100
AcDbVertex
100
AcDbPolyFaceMeshVertex
 10
-0.2544677183032035
 20
1.031249999999999
 30
0.4374999850988388
 70
   192
  0
VERTEX
  5
361
330
35D
100
AcDbEntity
  8
3D-EQPM
100
AcDbVertex
100
AcDbPolyFaceMeshVertex
 10
-0.2544677183032035
 20
1.031249999999999
 30
0.3903494775295257
 70
   192
  0
VERTEX
  5
362
330
35D
100
AcDbEntity
  8
3D-EQPM
100
AcDbFaceRecord
 10
0.0
 20
0.0
 30
0.0
 70
   128
 71
     1
 72
     2
 73
     3
 74
     4
  0
SEQEND
  5
363
330
35D
100
AcDbEntity
  8
3D-EQPM
  0
POLYLINE
  5
364
330
80
100
AcDbEntity
  8
3D-EQPM
100
AcDbPolyFaceMesh
 66
     1
 10
0.0
 20
0.0
 30
0.0
 70
    64
 71
     4
 72
     1
1001
REVIT
1002
{
1070
     4
1000
2544
1002
}
1002
{
1070
     3
1000
6341
1002
}
  0
VERTEX
  5
365
330
364
100
AcDbEntity
  8
3D-EQPM
100
AcDbVertex
100
AcDbPolyFaceMeshVertex
 10
-0.9062500298023222
 20
-1.031249999999999
 30
0.1659228466451168
 70
   192
  0
VERTEX
  5
366
330
364
100
AcDbEntity
  8
3D-EQPM
100
AcDbVertex
100
AcDbPolyFaceMeshVertex
 10
-0.2544677183032035
 20
-1.031249999999999
 30
0.3903494775295257
 70
   192
  0
VERTEX
  5
367
330
364
100
AcDbEntity
  8
3D-EQPM
100
AcDbVertex
100
AcDbPolyFaceMeshVertex
 10
-0.2544677183032035
 20
1.031249999999999
 30
0.3903494775295257
 70
   192
  0
VERTEX
  5
368
330
364
100
AcDbEntity
  8
3D-EQPM
100
AcDbVertex
100
AcDbPolyFaceMeshVertex
 10
-0.9062500298023222
 20
1.031249999999999
 30
0.1659228466451168
 70
   192
  0
VERTEX
  5
369
330
364
100
AcDbEntity
  8
3D-EQPM
100
AcDbFaceRecord
 10
0.0
 20
0.0
 30
0.0
 70
   128
 71
     1
 72
     2
 73
     3
 74
     4
  0
SEQEND
  5
36A
330
364
100
AcDbEntity
  8
3D-EQPM
  0
POLYLINE
  5
36B
330
80
100
AcDbEntity
  8
3D-EQPM
100
AcDbPolyFaceMesh
 66
     1
 10
0.0
 20
0.0
 30
0.0
 70
    64
 71
     4
 72
     1
1001
REVIT
1002
{
1070
     4
1000
2544
1002
}
1002
{
1070
     3
1000
6341
1002
}
  0
VERTEX
  5
36C
330
36B
100
AcDbEntity
  8
3D-EQPM
100
AcDbVertex
100
AcDbPolyFaceMeshVertex
 10
-0.9062500298023222
 20
-1.031249999999999
 30
0.0000000000011831
 70
   192
  0
VERTEX
  5
36D
330
36B
100
AcDbEntity
  8
3D-EQPM
100
AcDbVertex
100
AcDbPolyFaceMeshVertex
 10
-0.9062500298023222
 20
-1.031249999999999
 30
0.1659228466451168
 70
   192
  0
VERTEX
  5
36E
330
36B
100
AcDbEntity
  8
3D-EQPM
100
AcDbVertex
100
AcDbPolyFaceMeshVertex
 10
-0.9062500298023222
 20
1.031249999999999
 30
0.1659228466451168
 70
   192
  0
VERTEX
  5
36F
330
36B
100
AcDbEntity
  8
3D-EQPM
100
AcDbVertex
100
AcDbPolyFaceMeshVertex
 10
-0.9062500298023222
 20
1.031249999999999
 30
0.0000000000012116
 70
   192
  0
VERTEX
  5
370
330
36B
100
AcDbEntity
  8
3D-EQPM
100
AcDbFaceRecord
 10
0.0
 20
0.0
 30
0.0
 70
   128
 71
     1
 72
     2
 73
     3
 74
     4
  0
SEQEND
  5
371
330
36B
100
AcDbEntity
  8
3D-EQPM
  0
POLYLINE
  5
372
330
80
100
AcDbEntity
  8
3D-EQPM
100
AcDbPolyFaceMesh
 66
     1
 10
0.0
 20
0.0
 30
0.0
 70
    64
 71
     4
 72
     1
1001
REVIT
1002
{
1070
     4
1000
2544
1002
}
1002
{
1070
     3
1000
6341
1002
}
  0
VERTEX
  5
373
330
372
100
AcDbEntity
  8
3D-EQPM
100
AcDbVertex
100
AcDbPolyFaceMeshVertex
 10
-0.8125000298023222
 20
-1.031249999999999
 30
0.0000000000011828
 70
   192
  0
VERTEX
  5
374
330
372
100
AcDbEntity
  8
3D-EQPM
100
AcDbVertex
100
AcDbPolyFaceMeshVertex
 10
-0.9062500298023222
 20
-1.031249999999999
 30
0.0000000000011831
 70
   192
  0
VERTEX
  5
375
330
372
100
AcDbEntity
  8
3D-EQPM
100
AcDbVertex
100
AcDbPolyFaceMeshVertex
 10
-0.9062500298023222
 20
1.031249999999999
 30
0.0000000000012116
 70
   192
  0
VERTEX
  5
376
330
372
100
AcDbEntity
  8
3D-EQPM
100
AcDbVertex
100
AcDbPolyFaceMeshVertex
 10
-0.8125000298023222
 20
1.031249999999999
 30
0.0000000000012113
 70
   192
  0
VERTEX
  5
377
330
372
100
AcDbEntity
  8
3D-EQPM
100
AcDbFaceRecord
 10
0.0
 20
0.0
 30
0.0
 70
   128
 71
     4
 72
     1
 73
     2
 74
     3
  0
SEQEND
  5
378
330
372
100
AcDbEntity
  8
3D-EQPM
  0
ENDBLK
  5
37A
330
80
100
AcDbEntity
  8
0
100
AcDbBlockEnd
  0
BLOCK
  5
3EB
330
385
100
AcDbEntity
  8
0
100
AcDbBlockBegin
  2
FamilyGeomCombi_628-Export0
 70
     0
 10
0.0
 20
0.0
 30
0.0
  3
FamilyGeomCombi_628-Export0
  1

  0
POLYLINE
  5
386
330
385
100
AcDbEntity
  8
3D-EQPM
100
AcDbPolyFaceMesh
 66
     1
 10
0.0
 20
0.0
 30
0.0
 70
    64
 71
     4
 72
     1
1001
REVIT
1002
{
1070
     4
1000
2544
1002
}
1002
{
1070
     2
1000
-2001350
1002
}
1002
{
1070
     3
1000
6341
1002
}
  0
VERTEX
  5
387
330
386
100
AcDbEntity
  8
3D-EQPM
100
AcDbVertex
100
AcDbPolyFaceMeshVertex
 10
71.99999999999999
 20
0.8125000298023222
 30
0.0530172195285559
 70
   192
  0
VERTEX
  5
388
330
386
100
AcDbEntity
  8
3D-EQPM
100
AcDbVertex
100
AcDbPolyFaceMeshVertex
 10
71.99999999999999
 20
0.8125000298023222
 30
-0.0000000000007411
 70
   192
  0
VERTEX
  5
389
330
386
100
AcDbEntity
  8
3D-EQPM
100
AcDbVertex
100
AcDbPolyFaceMeshVertex
 10
0.0000000000000107
 20
0.8125000298023222
 30
-0.0000000000000013
 70
   192
  0
VERTEX
  5
38A
330
386
100
AcDbEntity
  8
3D-EQPM
100
AcDbVertex
100
AcDbPolyFaceMeshVertex
 10
0.0000000000000107
 20
0.8125000298023222
 30
0.0530172195285559
 70
   192
  0
VERTEX
  5
38B
330
386
100
AcDbEntity
  8
3D-EQPM
100
AcDbFaceRecord
 10
0.0
 20
0.0
 30
0.0
 70
   128
 71
     4
 72
     1
 73
     2
 74
     3
  0
SEQEND
  5
38C
330
386
100
AcDbEntity
  8
3D-EQPM
  0
POLYLINE
  5
38D
330
385
100
AcDbEntity
  8
3D-EQPM
100
AcDbPolyFaceMesh
 66
     1
 10
0.0
 20
0.0
 30
0.0
 70
    64
 71
     6
 72
     2
1001
REVIT
1002
{
1070
     4
1000
2544
1002
}
1002
{
1070
     2
1000
-2001350
1002
}
1002
{
1070
     3
1000
6341
1002
}
  0
VERTEX
  5
38E
330
38D
100
AcDbEntity
  8
3D-EQPM
100
AcDbVertex
100
AcDbPolyFaceMeshVertex
 10
71.99999999999999
 20
0.1404553726315498
 30
0.2377675026655197
 70
   192
  0
VERTEX
  5
38F
330
38D
100
AcDbEntity
  8
3D-EQPM
100
AcDbVertex
100
AcDbPolyFaceMeshVertex
 10
71.99999999999999
 20
0.4853495210409164
 30
0.1776643842458725
 70
   192
  0
VERTEX
  5
390
330
38D
100
AcDbEntity
  8
3D-EQPM
100
AcDbVertex
100
AcDbPolyFaceMeshVertex
 10
71.99999999999999
 20
0.8125000298023222
 30
0.0530172195285559
 70
   192
  0
VERTEX
  5
391
330
38D
100
AcDbEntity
  8
3D-EQPM
100
AcDbVertex
100
AcDbPolyFaceMeshVertex
 10
0.0000000000000107
 20
0.8125000298023222
 30
0.0530172195285559
 70
   192
  0
VERTEX
  5
392
330
38D
100
AcDbEntity
  8
3D-EQPM
100
AcDbVertex
100
AcDbPolyFaceMeshVertex
 10
0.0000000000000107
 20
0.4853495210409164
 30
0.1776643842458725
 70
   192
  0
VERTEX
  5
393
330
38D
100
AcDbEntity
  8
3D-EQPM
100
AcDbVertex
100
AcDbPolyFaceMeshVertex
 10
0.0000000000000103
 20
0.1404553726315498
 30
0.2377675026655197
 70
   192
  0
VERTEX
  5
394
330
38D
100
AcDbEntity
  8
3D-EQPM
100
AcDbFaceRecord
 10
0.0
 20
0.0
 30
0.0
 70
   128
 71
     3
 72
     4
 73
    -5
 74
     2
  0
VERTEX
  5
395
330
38D
100
AcDbEntity
  8
3D-EQPM
100
AcDbFaceRecord
 10
0.0
 20
0.0
 30
0.0
 70
   128
 71
     6
 72
     1
 73
    -2
 74
     5
  0
SEQEND
  5
396
330
38D
100
AcDbEntity
  8
3D-EQPM
  0
POLYLINE
  5
397
330
385
100
AcDbEntity
  8
3D-EQPM
100
AcDbPolyFaceMesh
 66
     1
 10
0.0
 20
0.0
 30
0.0
 70
    64
 71
     4
 72
     1
1001
REVIT
1002
{
1070
     4
1000
2544
1002
}
1002
{
1070
     2
1000
-2001350
1002
}
1002
{
1070
     3
1000
6341
1002
}
  0
VERTEX
  5
398
330
397
100
AcDbEntity
  8
3D-EQPM
100
AcDbVertex
100
AcDbPolyFaceMeshVertex
 10
71.99999999999999
 20
0.1404553726315498
 30
0.3071049079298973
 70
   192
  0
VERTEX
  5
399
330
397
100
AcDbEntity
  8
3D-EQPM
100
AcDbVertex
100
AcDbPolyFaceMeshVertex
 10
71.99999999999999
 20
0.1404553726315498
 30
0.2377675026655197
 70
   192
  0
VERTEX
  5
39A
330
397
100
AcDbEntity
  8
3D-EQPM
100
AcDbVertex
100
AcDbPolyFaceMeshVertex
 10
0.0000000000000107
 20
0.1404553726315498
 30
0.2377675026655197
 70
   192
  0
VERTEX
  5
39B
330
397
100
AcDbEntity
  8
3D-EQPM
100
AcDbVertex
100
AcDbPolyFaceMeshVertex
 10
0.0000000000000107
 20
0.1404553726315498
 30
0.3071049079298973
 70
   192
  0
VERTEX
  5
39C
330
397
100
AcDbEntity
  8
3D-EQPM
100
AcDbFaceRecord
 10
0.0
 20
0.0
 30
0.0
 70
   128
 71
     1
 72
     2
 73
     3
 74
     4
  0
SEQEND
  5
39D
330
397
100
AcDbEntity
  8
3D-EQPM
  0
POLYLINE
  5
39E
330
385
100
AcDbEntity
  8
3D-EQPM
100
AcDbPolyFaceMesh
 66
     1
 10
0.0
 20
0.0
 30
0.0
 70
    64
 71
     6
 72
     2
1001
REVIT
1002
{
1070
     4
1000
2544
1002
}
1002
{
1070
     2
1000
-2001350
1002
}
1002
{
1070
     3
1000
6341
1002
}
  0
VERTEX
  5
39F
330
39E
100
AcDbEntity
  8
3D-EQPM
100
AcDbVertex
100
AcDbPolyFaceMeshVertex
 10
71.99999999999999
 20
-0.1404553726315498
 30
0.3071049079298973
 70
   192
  0
VERTEX
  5
3A0
330
39E
100
AcDbEntity
  8
3D-EQPM
100
AcDbVertex
100
AcDbPolyFaceMeshVertex
 10
71.99999999999999
 20
0.0000000000000298
 30
0.3124999925494194
 70
   192
  0
VERTEX
  5
3A1
330
39E
100
AcDbEntity
  8
3D-EQPM
100
AcDbVertex
100
AcDbPolyFaceMeshVertex
 10
71.99999999999999
 20
0.1404553726315498
 30
0.3071049079298973
 70
   192
  0
VERTEX
  5
3A2
330
39E
100
AcDbEntity
  8
3D-EQPM
100
AcDbVertex
100
AcDbPolyFaceMeshVertex
 10
0.000000000000011
 20
0.1404553726315498
 30
0.3071049079298973
 70
   192
  0
VERTEX
  5
3A3
330
39E
100
AcDbEntity
  8
3D-EQPM
100
AcDbVertex
100
AcDbPolyFaceMeshVertex
 10
0.000000000000011
 20
0.000000000000029
 30
0.3124999925494194
 70
   192
  0
VERTEX
  5
3A4
330
39E
100
AcDbEntity
  8
3D-EQPM
100
AcDbVertex
100
AcDbPolyFaceMeshVertex
 10
0.000000000000011
 20
-0.1404553726315498
 30
0.3071049079298973
 70
   192
  0
VERTEX
  5
3A5
330
39E
100
AcDbEntity
  8
3D-EQPM
100
AcDbFaceRecord
 10
0.0
 20
0.0
 30
0.0
 70
   128
 71
     3
 72
     4
 73
    -5
 74
     2
  0
VERTEX
  5
3A6
330
39E
100
AcDbEntity
  8
3D-EQPM
100
AcDbFaceRecord
 10
0.0
 20
0.0
 30
0.0
 70
   128
 71
     6
 72
     1
 73
    -2
 74
     5
  0
SEQEND
  5
3A7
330
39E
100
AcDbEntity
  8
3D-EQPM
  0
POLYLINE
  5
3A8
330
385
100
AcDbEntity
  8
3D-EQPM
100
AcDbPolyFaceMesh
 66
     1
 10
0.0
 20
0.0
 30
0.0
 70
    64
 71
     4
 72
     1
1001
REVIT
1002
{
1070
     4
1000
2544
1002
}
1002
{
1070
     2
1000
-2001350
1002
}
1002
{
1070
     3
1000
6341
1002
}
  0
VERTEX
  5
3A9
330
3A8
100
AcDbEntity
  8
3D-EQPM
100
AcDbVertex
100
AcDbPolyFaceMeshVertex
 10
71.99999999999999
 20
-0.1404553726315498
 30
0.2377675026655197
 70
   192
  0
VERTEX
  5
3AA
330
3A8
100
AcDbEntity
  8
3D-EQPM
100
AcDbVertex
100
AcDbPolyFaceMeshVertex
 10
71.99999999999999
 20
-0.1404553726315498
 30
0.3071049079298973
 70
   192
  0
VERTEX
  5
3AB
330
3A8
100
AcDbEntity
  8
3D-EQPM
100
AcDbVertex
100
AcDbPolyFaceMeshVertex
 10
0.0000000000000107
 20
-0.1404553726315498
 30
0.3071049079298973
 70
   192
  0
VERTEX
  5
3AC
330
3A8
100
AcDbEntity
  8
3D-EQPM
100
AcDbVertex
100
AcDbPolyFaceMeshVertex
 10
0.0000000000000107
 20
-0.1404553726315498
 30
0.2377675026655197
 70
   192
  0
VERTEX
  5
3AD
330
3A8
100
AcDbEntity
  8
3D-EQPM
100
AcDbFaceRecord
 10
0.0
 20
0.0
 30
0.0
 70
   128
 71
     1
 72
     2
 73
     3
 74
     4
  0
SEQEND
  5
3AE
330
3A8
100
AcDbEntity
  8
3D-EQPM
  0
POLYLINE
  5
3AF
330
385
100
AcDbEntity
  8
3D-EQPM
100
AcDbPolyFaceMesh
 66
     1
 10
0.0
 20
0.0
 30
0.0
 70
    64
 71
     6
 72
     2
1001
REVIT
1002
{
1070
     4
1000
2544
1002
}
1002
{
1070
     2
1000
-2001350
1002
}
1002
{
1070
     3
1000
6341
1002
}
  0
VERTEX
  5
3B0
330
3AF
100
AcDbEntity
  8
3D-EQPM
100
AcDbVertex
100
AcDbPolyFaceMeshVertex
 10
71.99999999999999
 20
-0.8125000298023222
 30
0.0530172195285559
 70
   192
  0
VERTEX
  5
3B1
330
3AF
100
AcDbEntity
  8
3D-EQPM
100
AcDbVertex
100
AcDbPolyFaceMeshVertex
 10
71.99999999999999
 20
-0.4853495210409164
 30
0.1776643842458725
 70
   192
  0
VERTEX
  5
3B2
330
3AF
100
AcDbEntity
  8
3D-EQPM
100
AcDbVertex
100
AcDbPolyFaceMeshVertex
 10
71.99999999999999
 20
-0.1404553726315498
 30
0.2377675026655197
 70
   192
  0
VERTEX
  5
3B3
330
3AF
100
AcDbEntity
  8
3D-EQPM
100
AcDbVertex
100
AcDbPolyFaceMeshVertex
 10
0.0000000000000103
 20
-0.1404553726315498
 30
0.2377675026655197
 70
   192
  0
VERTEX
  5
3B4
330
3AF
100
AcDbEntity
  8
3D-EQPM
100
AcDbVertex
100
AcDbPolyFaceMeshVertex
 10
0.0000000000000107
 20
-0.4853495210409164
 30
0.1776643842458725
 70
   192
  0
VERTEX
  5
3B5
330
3AF
100
AcDbEntity
  8
3D-EQPM
100
AcDbVertex
100
AcDbPolyFaceMeshVertex
 10
0.0000000000000107
 20
-0.8125000298023222
 30
0.0530172195285559
 70
   192
  0
VERTEX
  5
3B6
330
3AF
100
AcDbEntity
  8
3D-EQPM
100
AcDbFaceRecord
 10
0.0
 20
0.0
 30
0.0
 70
   128
 71
     3
 72
     4
 73
    -5
 74
     2
  0
VERTEX
  5
3B7
330
3AF
100
AcDbEntity
  8
3D-EQPM
100
AcDbFaceRecord
 10
0.0
 20
0.0
 30
0.0
 70
   128
 71
     6
 72
     1
 73
    -2
 74
     5
  0
SEQEND
  5
3B8
330
3AF
100
AcDbEntity
  8
3D-EQPM
  0
POLYLINE
  5
3B9
330
385
100
AcDbEntity
  8
3D-EQPM
100
AcDbPolyFaceMesh
 66
     1
 10
0.0
 20
0.0
 30
0.0
 70
    64
 71
     4
 72
     1
1001
REVIT
1002
{
1070
     4
1000
2544
1002
}
1002
{
1070
     2
1000
-2001350
1002
}
1002
{
1070
     3
1000
6341
1002
}
  0
VERTEX
  5
3BA
330
3B9
100
AcDbEntity
  8
3D-EQPM
100
AcDbVertex
100
AcDbPolyFaceMeshVertex
 10
71.99999999999999
 20
-0.8125000298023222
 30
-0.0000000000007413
 70
   192
  0
VERTEX
  5
3BB
330
3B9
100
AcDbEntity
  8
3D-EQPM
100
AcDbVertex
100
AcDbPolyFaceMeshVertex
 10
71.99999999999999
 20
-0.8125000298023222
 30
0.0530172195285559
 70
   192
  0
VERTEX
  5
3BC
330
3B9
100
AcDbEntity
  8
3D-EQPM
100
AcDbVertex
100
AcDbPolyFaceMeshVertex
 10
0.0000000000000107
 20
-0.8125000298023222
 30
0.0530172195285559
 70
   192
  0
VERTEX
  5
3BD
330
3B9
100
AcDbEntity
  8
3D-EQPM
100
AcDbVertex
100
AcDbPolyFaceMeshVertex
 10
0.0000000000000107
 20
-0.8125000298023222
 30
-0.0000000000000015
 70
   192
  0
VERTEX
  5
3BE
330
3B9
100
AcDbEntity
  8
3D-EQPM
100
AcDbFaceRecord
 10
0.0
 20
0.0
 30
0.0
 70
   128
 71
     4
 72
     1
 73
     2
 74
     3
  0
SEQEND
  5
3BF
330
3B9
100
AcDbEntity
  8
3D-EQPM
  0
POLYLINE
  5
3C0
330
385
100
AcDbEntity
  8
3D-EQPM
100
AcDbPolyFaceMesh
 66
     1
 10
0.0
 20
0.0
 30
0.0
 70
    64
 71
     4
 72
     1
1001
REVIT
1002
{
1070
     4
1000
2544
1002
}
1002
{
1070
     2
1000
-2001350
1002
}
1002
{
1070
     3
1000
6341
1002
}
  0
VERTEX
  5
3C1
330
3C0
100
AcDbEntity
  8
3D-EQPM
100
AcDbVertex
100
AcDbPolyFaceMeshVertex
 10
71.99999999999999
 20
0.8125000298023222
 30
-0.0000000000007411
 70
   192
  0
VERTEX
  5
3C2
330
3C0
100
AcDbEntity
  8
3D-EQPM
100
AcDbVertex
100
AcDbPolyFaceMeshVertex
 10
71.99999999999999
 20
-0.8125000298023222
 30
-0.0000000000007413
 70
   192
  0
VERTEX
  5
3C3
330
3C0
100
AcDbEntity
  8
3D-EQPM
100
AcDbVertex
100
AcDbPolyFaceMeshVertex
 10
0.0000000000000107
 20
-0.8125000298023222
 30
-0.0000000000000015
 70
   192
  0
VERTEX
  5
3C4
330
3C0
100
AcDbEntity
  8
3D-EQPM
100
AcDbVertex
100
AcDbPolyFaceMeshVertex
 10
0.0000000000000107
 20
0.8125000298023222
 30
-0.0000000000000013
 70
   192
  0
VERTEX
  5
3C5
330
3C0
100
AcDbEntity
  8
3D-EQPM
100
AcDbFaceRecord
 10
0.0
 20
0.0
 30
0.0
 70
   128
 71
     1
 72
     2
 73
     3
 74
     4
  0
SEQEND
  5
3C6
330
3C0
100
AcDbEntity
  8
3D-EQPM
  0
POLYLINE
  5
3C7
330
385
100
AcDbEntity
  8
3D-EQPM
100
AcDbPolyFaceMesh
 66
     1
 10
0.0
 20
0.0
 30
0.0
 70
    64
 71
    11
 72
     5
1001
REVIT
1002
{
1070
     4
1000
2544
1002
}
1002
{
1070
     2
1000
-2001350
1002
}
1002
{
1070
     3
1000
6341
1002
}
  0
VERTEX
  5
3C8
330
3C7
100
AcDbEntity
  8
3D-EQPM
100
AcDbVertex
100
AcDbPolyFaceMeshVertex
 10
71.99999999999999
 20
-0.8125000298023222
 30
-0.0000000000007412
 70
   192
  0
VERTEX
  5
3C9
330
3C7
100
AcDbEntity
  8
3D-EQPM
100
AcDbVertex
100
AcDbPolyFaceMeshVertex
 10
71.99999999999999
 20
-0.8125000298023222
 30
0.0530172195285559
 70
   192
  0
VERTEX
  5
3CA
330
3C7
100
AcDbEntity
  8
3D-EQPM
100
AcDbVertex
100
AcDbPolyFaceMeshVertex
 10
71.99999999999999
 20
-0.4853495210409164
 30
0.1776643842458725
 70
   192
  0
VERTEX
  5
3CB
330
3C7
100
AcDbEntity
  8
3D-EQPM
100
AcDbVertex
100
AcDbPolyFaceMeshVertex
 10
71.99999999999999
 20
-0.1404553726315498
 30
0.2377675026655197
 70
   192
  0
VERTEX
  5
3CC
330
3C7
100
AcDbEntity
  8
3D-EQPM
100
AcDbVertex
100
AcDbPolyFaceMeshVertex
 10
71.99999999999999
 20
-0.1404553726315498
 30
0.3071049079298973
 70
   192
  0
VERTEX
  5
3CD
330
3C7
100
AcDbEntity
  8
3D-EQPM
100
AcDbVertex
100
AcDbPolyFaceMeshVertex
 10
71.99999999999999
 20
0.0000000000000298
 30
0.3124999925494194
 70
   192
  0
VERTEX
  5
3CE
330
3C7
100
AcDbEntity
  8
3D-EQPM
100
AcDbVertex
100
AcDbPolyFaceMeshVertex
 10
71.99999999999999
 20
0.1404553726315498
 30
0.3071049079298973
 70
   192
  0
VERTEX
  5
3CF
330
3C7
100
AcDbEntity
  8
3D-EQPM
100
AcDbVertex
100
AcDbPolyFaceMeshVertex
 10
71.99999999999999
 20
0.1404553726315498
 30
0.2377675026655197
 70
   192
  0
VERTEX
  5
3D0
330
3C7
100
AcDbEntity
  8
3D-EQPM
100
AcDbVertex
100
AcDbPolyFaceMeshVertex
 10
71.99999999999999
 20
0.4853495210409164
 30
0.1776643842458725
 70
   192
  0
VERTEX
  5
3D1
330
3C7
100
AcDbEntity
  8
3D-EQPM
100
AcDbVertex
100
AcDbPolyFaceMeshVertex
 10
71.99999999999999
 20
0.8125000298023222
 30
0.0530172195285559
 70
   192
  0
VERTEX
  5
3D2
330
3C7
100
AcDbEntity
  8
3D-EQPM
100
AcDbVertex
100
AcDbPolyFaceMeshVertex
 10
71.99999999999999
 20
0.8125000298023222
 30
-0.0000000000007411
 70
   192
  0
VERTEX
  5
3D3
330
3C7
100
AcDbEntity
  8
3D-EQPM
100
AcDbFaceRecord
 10
0.0
 20
0.0
 30
0.0
 70
   128
 71
     8
 72
     7
 73
    -6
 74
    -4
  0
VERTEX
  5
3D4
330
3C7
100
AcDbEntity
  8
3D-EQPM
100
AcDbFaceRecord
 10
0.0
 20
0.0
 30
0.0
 70
   128
 71
     5
 72
    -4
 73
     6
  0
VERTEX
  5
3D5
330
3C7
100
AcDbEntity
  8
3D-EQPM
100
AcDbFaceRecord
 10
0.0
 20
0.0
 30
0.0
 70
   128
 71
    -8
 72
    -4
 73
     1
 74
   -11
  0
VERTEX
  5
3D6
330
3C7
100
AcDbEntity
  8
3D-EQPM
100
AcDbFaceRecord
 10
0.0
 20
0.0
 30
0.0
 70
   128
 71
    11
 72
    10
 73
     9
 74
    -8
  0
VERTEX
  5
3D7
330
3C7
100
AcDbEntity
  8
3D-EQPM
100
AcDbFaceRecord
 10
0.0
 20
0.0
 30
0.0
 70
   128
 71
     3
 72
     2
 73
    -1
 74
     4
  0
SEQEND
  5
3D8
330
3C7
100
AcDbEntity
  8
3D-EQPM
  0
POLYLINE
  5
3D9
330
385
100
AcDbEntity
  8
3D-EQPM
100
AcDbPolyFaceMesh
 66
     1
 10
0.0
 20
0.0
 30
0.0
 70
    64
 71
    11
 72
     5
1001
REVIT
1002
{
1070
     4
1000
2544
1002
}
1002
{
1070
     2
1000
-2001350
1002
}
1002
{
1070
     3
1000
6341
1002
}
  0
VERTEX
  5
3DA
330
3D9
100
AcDbEntity
  8
3D-EQPM
100
AcDbVertex
100
AcDbPolyFaceMeshVertex
 10
0.0000000000000107
 20
0.4853495210409164
 30
0.1776643842458725
 70
   192
  0
VERTEX
  5
3DB
330
3D9
100
AcDbEntity
  8
3D-EQPM
100
AcDbVertex
100
AcDbPolyFaceMeshVertex
 10
0.0000000000000107
 20
0.1404553726315498
 30
0.2377675026655197
 70
   192
  0
VERTEX
  5
3DC
330
3D9
100
AcDbEntity
  8
3D-EQPM
100
AcDbVertex
100
AcDbPolyFaceMeshVertex
 10
0.0000000000000107
 20
0.1404553726315498
 30
0.3071049079298973
 70
   192
  0
VERTEX
  5
3DD
330
3D9
100
AcDbEntity
  8
3D-EQPM
100
AcDbVertex
100
AcDbPolyFaceMeshVertex
 10
0.0000000000000107
 20
0.0000000000000293
 30
0.3124999925494194
 70
   192
  0
VERTEX
  5
3DE
330
3D9
100
AcDbEntity
  8
3D-EQPM
100
AcDbVertex
100
AcDbPolyFaceMeshVertex
 10
0.0000000000000107
 20
-0.1404553726315498
 30
0.3071049079298973
 70
   192
  0
VERTEX
  5
3DF
330
3D9
100
AcDbEntity
  8
3D-EQPM
100
AcDbVertex
100
AcDbPolyFaceMeshVertex
 10
0.0000000000000107
 20
-0.1404553726315498
 30
0.2377675026655197
 70
   192
  0
VERTEX
  5
3E0
330
3D9
100
AcDbEntity
  8
3D-EQPM
100
AcDbVertex
100
AcDbPolyFaceMeshVertex
 10
0.0000000000000107
 20
-0.4853495210409164
 30
0.1776643842458725
 70
   192
  0
VERTEX
  5
3E1
330
3D9
100
AcDbEntity
  8
3D-EQPM
100
AcDbVertex
100
AcDbPolyFaceMeshVertex
 10
0.0000000000000107
 20
-0.8125000298023222
 30
0.0530172195285559
 70
   192
  0
VERTEX
  5
3E2
330
3D9
100
AcDbEntity
  8
3D-EQPM
100
AcDbVertex
100
AcDbPolyFaceMeshVertex
 10
0.0000000000000107
 20
-0.8125000298023222
 30
-0.0000000000000013
 70
   192
  0
VERTEX
  5
3E3
330
3D9
100
AcDbEntity
  8
3D-EQPM
100
AcDbVertex
100
AcDbPolyFaceMeshVertex
 10
0.0000000000000107
 20
0.8125000298023222
 30
-0.0000000000000013
 70
   192
  0
VERTEX
  5
3E4
330
3D9
100
AcDbEntity
  8
3D-EQPM
100
AcDbVertex
100
AcDbPolyFaceMeshVertex
 10
0.0000000000000107
 20
0.8125000298023222
 30
0.0530172195285559
 70
   192
  0
VERTEX
  5
3E5
330
3D9
100
AcDbEntity
  8
3D-EQPM
100
AcDbFaceRecord
 10
0.0
 20
0.0
 30
0.0
 70
   128
 71
     6
 72
     5
 73
    -4
 74
    -2
  0
VERTEX
  5
3E6
330
3D9
100
AcDbEntity
  8
3D-EQPM
100
AcDbFaceRecord
 10
0.0
 20
0.0
 30
0.0
 70
   128
 71
     3
 72
    -2
 73
     4
  0
VERTEX
  5
3E7
330
3D9
100
AcDbEntity
  8
3D-EQPM
100
AcDbFaceRecord
 10
0.0
 20
0.0
 30
0.0
 70
   128
 71
    -6
 72
    -2
 73
    10
 74
    -9
  0
VERTEX
  5
3E8
330
3D9
100
AcDbEntity
  8
3D-EQPM
100
AcDbFaceRecord
 10
0.0
 20
0.0
 30
0.0
 70
   128
 71
     9
 72
     8
 73
     7
 74
    -6
  0
VERTEX
  5
3E9
330
3D9
100
AcDbEntity
  8
3D-EQPM
100
AcDbFaceRecord
 10
0.0
 20
0.0
 30
0.0
 70
   128
 71
     1
 72
    11
 73
   -10
 74
     2
  0
SEQEND
  5
3EA
330
3D9
100
AcDbEntity
  8
3D-EQPM
  0
ENDBLK
  5
3EC
330
385
100
AcDbEntity
  8
0
100
AcDbBlockEnd
  0
BLOCK
  5
457
330
3EE
100
AcDbEntity
  8
0
100
AcDbBlockBegin
  2
FamilyGeomCombi_629-Export0
 70
     0
 10
0.0
 20
0.0
 30
0.0
  3
FamilyGeomCombi_629-Export0
  1

  0
POLYLINE
  5
3EF
330
3EE
100
AcDbEntity
  8
3D-EQPM
100
AcDbPolyFaceMesh
 66
     1
 10
0.0
 20
0.0
 30
0.0
 70
    64
 71
     4
 72
     1
1001
REVIT
1002
{
1070
     4
1000
26971
1002
}
1002
{
1070
     2
1000
-2001350
1002
}
1002
{
1070
     3
1000
6341
1002
}
  0
VERTEX
  5
3F0
330
3EF
100
AcDbEntity
  8
3D-EQPM
100
AcDbVertex
100
AcDbPolyFaceMeshVertex
 10
71.99999999999999
 20
0.5727388858795166
 30
0.2206177935004234
 70
   192
  0
VERTEX
  5
3F1
330
3EF
100
AcDbEntity
  8
3D-EQPM
100
AcDbVertex
100
AcDbPolyFaceMeshVertex
 10
71.99999999999999
 20
0.5520982593297958
 30
0.1579426936805248
 70
   192
  0
VERTEX
  5
3F2
330
3EF
100
AcDbEntity
  8
3D-EQPM
100
AcDbVertex
100
AcDbPolyFaceMeshVertex
 10
0.0000000000000107
 20
0.5520982593297958
 30
0.1579426936805248
 70
   192
  0
VERTEX
  5
3F3
330
3EF
100
AcDbEntity
  8
3D-EQPM
100
AcDbVertex
100
AcDbPolyFaceMeshVertex
 10
0.0000000000000107
 20
0.5727388858795166
 30
0.2206177935004234
 70
   192
  0
VERTEX
  5
3F4
330
3EF
100
AcDbEntity
  8
3D-EQPM
100
AcDbFaceRecord
 10
0.0
 20
0.0
 30
0.0
 70
   128
 71
     4
 72
     1
 73
     2
 74
     3
  0
SEQEND
  5
3F5
330
3EF
100
AcDbEntity
  8
3D-EQPM
  0
POLYLINE
  5
3F6
330
3EE
100
AcDbEntity
  8
3D-EQPM
100
AcDbPolyFaceMesh
 66
     1
 10
0.0
 20
0.0
 30
0.0
 70
    64
 71
     6
 72
     2
1001
REVIT
1002
{
1070
     4
1000
26971
1002
}
1002
{
1070
     2
1000
-2001350
1002
}
1002
{
1070
     3
1000
6341
1002
}
  0
VERTEX
  5
3F7
330
3F6
100
AcDbEntity
  8
3D-EQPM
100
AcDbVertex
100
AcDbPolyFaceMeshVertex
 10
71.99999999999999
 20
0.3758903592824935
 30
0.2735008969902992
 70
   192
  0
VERTEX
  5
3F8
330
3F6
100
AcDbEntity
  8
3D-EQPM
100
AcDbVertex
100
AcDbPolyFaceMeshVertex
 10
71.99999999999999
 20
0.4750510901212692
 30
0.2498006522655487
 70
   192
  0
VERTEX
  5
3F9
330
3F6
100
AcDbEntity
  8
3D-EQPM
100
AcDbVertex
100
AcDbPolyFaceMeshVertex
 10
71.99999999999999
 20
0.5727388858795166
 30
0.2206177935004234
 70
   192
  0
VERTEX
  5
3FA
330
3F6
100
AcDbEntity
  8
3D-EQPM
100
AcDbVertex
100
AcDbPolyFaceMeshVertex
 10
0.000000000000011
 20
0.5727388858795166
 30
0.2206177935004234
 70
   192
  0
VERTEX
  5
3FB
330
3F6
100
AcDbEntity
  8
3D-EQPM
100
AcDbVertex
100
AcDbPolyFaceMeshVertex
 10
0.0000000000000107
 20
0.4750510901212692
 30
0.2498006522655487
 70
   192
  0
VERTEX
  5
3FC
330
3F6
100
AcDbEntity
  8
3D-EQPM
100
AcDbVertex
100
AcDbPolyFaceMeshVertex
 10
0.0000000000000107
 20
0.3758903592824935
 30
0.2735008969902992
 70
   192
  0
VERTEX
  5
3FD
330
3F6
100
AcDbEntity
  8
3D-EQPM
100
AcDbFaceRecord
 10
0.0
 20
0.0
 30
0.0
 70
   128
 71
     3
 72
     4
 73
    -5
 74
     2
  0
VERTEX
  5
3FE
330
3F6
100
AcDbEntity
  8
3D-EQPM
100
AcDbFaceRecord
 10
0.0
 20
0.0
 30
0.0
 70
   128
 71
     6
 72
     1
 73
    -2
 74
     5
  0
SEQEND
  5
3FF
330
3F6
100
AcDbEntity
  8
3D-EQPM
  0
POLYLINE
  5
400
330
3EE
100
AcDbEntity
  8
3D-EQPM
100
AcDbPolyFaceMesh
 66
     1
 10
0.0
 20
0.0
 30
0.0
 70
    64
 71
     4
 72
     1
1001
REVIT
1002
{
1070
     4
1000
26971
1002
}
1002
{
1070
     2
1000
-2001350
1002
}
1002
{
1070
     3
1000
6341
1002
}
  0
VERTEX
  5
401
330
400
100
AcDbEntity
  8
3D-EQPM
100
AcDbVertex
100
AcDbPolyFaceMeshVertex
 10
71.99999999999999
 20
0.3619477450847625
 30
0.2070315778255462
 70
   192
  0
VERTEX
  5
402
330
400
100
AcDbEntity
  8
3D-EQPM
100
AcDbVertex
100
AcDbPolyFaceMeshVertex
 10
71.99999999999999
 20
0.3758903592824935
 30
0.2735008969902992
 70
   192
  0
VERTEX
  5
403
330
400
100
AcDbEntity
  8
3D-EQPM
100
AcDbVertex
100
AcDbPolyFaceMeshVertex
 10
0.0000000000000107
 20
0.3758903592824935
 30
0.2735008969902992
 70
   192
  0
VERTEX
  5
404
330
400
100
AcDbEntity
  8
3D-EQPM
100
AcDbVertex
100
AcDbPolyFaceMeshVertex
 10
0.0000000000000107
 20
0.3619477450847625
 30
0.2070315778255462
 70
   192
  0
VERTEX
  5
405
330
400
100
AcDbEntity
  8
3D-EQPM
100
AcDbFaceRecord
 10
0.0
 20
0.0
 30
0.0
 70
   128
 71
     1
 72
     2
 73
     3
 74
     4
  0
SEQEND
  5
406
330
400
100
AcDbEntity
  8
3D-EQPM
  0
POLYLINE
  5
407
330
3EE
100
AcDbEntity
  8
3D-EQPM
100
AcDbPolyFaceMesh
 66
     1
 10
0.0
 20
0.0
 30
0.0
 70
    64
 71
     6
 72
     2
1001
REVIT
1002
{
1070
     4
1000
26971
1002
}
1002
{
1070
     2
1000
-2001350
1002
}
1002
{
1070
     3
1000
6341
1002
}
  0
VERTEX
  5
408
330
407
100
AcDbEntity
  8
3D-EQPM
100
AcDbVertex
100
AcDbPolyFaceMeshVertex
 10
0.000000000000012
 20
0.5520982593297958
 30
0.1579426936805248
 70
   192
  0
VERTEX
  5
409
330
407
100
AcDbEntity
  8
3D-EQPM
100
AcDbVertex
100
AcDbPolyFaceMeshVertex
 10
0.0000000000000107
 20
0.4576815962791442
 30
0.1850383132696151
 70
   192
  0
VERTEX
  5
40A
330
407
100
AcDbEntity
  8
3D-EQPM
100
AcDbVertex
100
AcDbPolyFaceMeshVertex
 10
0.0000000000000107
 20
0.3619477450847625
 30
0.2070315778255462
 70
   192
  0
VERTEX
  5
40B
330
407
100
AcDbEntity
  8
3D-EQPM
100
AcDbVertex
100
AcDbPolyFaceMeshVertex
 10
71.99999999999999
 20
0.3619477450847625
 30
0.2070315778255462
 70
   192
  0
VERTEX
  5
40C
330
407
100
AcDbEntity
  8
3D-EQPM
100
AcDbVertex
100
AcDbPolyFaceMeshVertex
 10
71.99999999999999
 20
0.4576815962791442
 30
0.1850383132696151
 70
   192
  0
VERTEX
  5
40D
330
407
100
AcDbEntity
  8
3D-EQPM
100
AcDbVertex
100
AcDbPolyFaceMeshVertex
 10
71.99999999999999
 20
0.5520982593297958
 30
0.1579426936805248
 70
   192
  0
VERTEX
  5
40E
330
407
100
AcDbEntity
  8
3D-EQPM
100
AcDbFaceRecord
 10
0.0
 20
0.0
 30
0.0
 70
   128
 71
     4
 72
     3
 73
    -2
 74
     5
  0
VERTEX
  5
40F
330
407
100
AcDbEntity
  8
3D-EQPM
100
AcDbFaceRecord
 10
0.0
 20
0.0
 30
0.0
 70
   128
 71
     1
 72
     6
 73
    -5
 74
     2
  0
SEQEND
  5
410
330
407
100
AcDbEntity
  8
3D-EQPM
  0
POLYLINE
  5
411
330
3EE
100
AcDbEntity
  8
3D-EQPM
100
AcDbPolyFaceMesh
 66
     1
 10
0.0
 20
0.0
 30
0.0
 70
    64
 71
     6
 72
     2
1001
REVIT
1002
{
1070
     4
1000
26971
1002
}
1002
{
1070
     2
1000
-2001350
1002
}
1002
{
1070
     3
1000
6341
1002
}
  0
VERTEX
  5
412
330
411
100
AcDbEntity
  8
3D-EQPM
100
AcDbVertex
100
AcDbPolyFaceMeshVertex
 10
71.99999999999999
 20
-0.5727388858795166
 30
0.2206177935004234
 70
   192
  0
VERTEX
  5
413
330
411
100
AcDbEntity
  8
3D-EQPM
100
AcDbVertex
100
AcDbPolyFaceMeshVertex
 10
71.99999999999999
 20
-0.4750510901212692
 30
0.2498006522655487
 70
   192
  0
VERTEX
  5
414
330
411
100
AcDbEntity
  8
3D-EQPM
100
AcDbVertex
100
AcDbPolyFaceMeshVertex
 10
71.99999999999999
 20
-0.3758903592824935
 30
0.2735008969902992
 70
   192
  0
VERTEX
  5
415
330
411
100
AcDbEntity
  8
3D-EQPM
100
AcDbVertex
100
AcDbPolyFaceMeshVertex
 10
0.0000000000000107
 20
-0.3758903592824935
 30
0.2735008969902992
 70
   192
  0
VERTEX
  5
416
330
411
100
AcDbEntity
  8
3D-EQPM
100
AcDbVertex
100
AcDbPolyFaceMeshVertex
 10
0.0000000000000107
 20
-0.4750510901212692
 30
0.2498006522655487
 70
   192
  0
VERTEX
  5
417
330
411
100
AcDbEntity
  8
3D-EQPM
100
AcDbVertex
100
AcDbPolyFaceMeshVertex
 10
0.0000000000000104
 20
-0.5727388858795166
 30
0.2206177935004234
 70
   192
  0
VERTEX
  5
418
330
411
100
AcDbEntity
  8
3D-EQPM
100
AcDbFaceRecord
 10
0.0
 20
0.0
 30
0.0
 70
   128
 71
     3
 72
     4
 73
    -5
 74
     2
  0
VERTEX
  5
419
330
411
100
AcDbEntity
  8
3D-EQPM
100
AcDbFaceRecord
 10
0.0
 20
0.0
 30
0.0
 70
   128
 71
     6
 72
     1
 73
    -2
 74
     5
  0
SEQEND
  5
41A
330
411
100
AcDbEntity
  8
3D-EQPM
  0
POLYLINE
  5
41B
330
3EE
100
AcDbEntity
  8
3D-EQPM
100
AcDbPolyFaceMesh
 66
     1
 10
0.0
 20
0.0
 30
0.0
 70
    64
 71
     4
 72
     1
1001
REVIT
1002
{
1070
     4
1000
26971
1002
}
1002
{
1070
     2
1000
-2001350
1002
}
1002
{
1070
     3
1000
6341
1002
}
  0
VERTEX
  5
41C
330
41B
100
AcDbEntity
  8
3D-EQPM
100
AcDbVertex
100
AcDbPolyFaceMeshVertex
 10
71.99999999999999
 20
-0.5520982593297958
 30
0.1579426936805248
 70
   192
  0
VERTEX
  5
41D
330
41B
100
AcDbEntity
  8
3D-EQPM
100
AcDbVertex
100
AcDbPolyFaceMeshVertex
 10
71.99999999999999
 20
-0.5727388858795166
 30
0.2206177935004234
 70
   192
  0
VERTEX
  5
41E
330
41B
100
AcDbEntity
  8
3D-EQPM
100
AcDbVertex
100
AcDbPolyFaceMeshVertex
 10
0.0000000000000107
 20
-0.5727388858795166
 30
0.2206177935004234
 70
   192
  0
VERTEX
  5
41F
330
41B
100
AcDbEntity
  8
3D-EQPM
100
AcDbVertex
100
AcDbPolyFaceMeshVertex
 10
0.0000000000000107
 20
-0.5520982593297958
 30
0.1579426936805248
 70
   192
  0
VERTEX
  5
420
330
41B
100
AcDbEntity
  8
3D-EQPM
100
AcDbFaceRecord
 10
0.0
 20
0.0
 30
0.0
 70
   128
 71
     1
 72
     2
 73
     3
 74
     4
  0
SEQEND
  5
421
330
41B
100
AcDbEntity
  8
3D-EQPM
  0
POLYLINE
  5
422
330
3EE
100
AcDbEntity
  8
3D-EQPM
100
AcDbPolyFaceMesh
 66
     1
 10
0.0
 20
0.0
 30
0.0
 70
    64
 71
     6
 72
     2
1001
REVIT
1002
{
1070
     4
1000
26971
1002
}
1002
{
1070
     2
1000
-2001350
1002
}
1002
{
1070
     3
1000
6341
1002
}
  0
VERTEX
  5
423
330
422
100
AcDbEntity
  8
3D-EQPM
100
AcDbVertex
100
AcDbPolyFaceMeshVertex
 10
0.0000000000000109
 20
-0.3619477450847625
 30
0.2070315778255462
 70
   192
  0
VERTEX
  5
424
330
422
100
AcDbEntity
  8
3D-EQPM
100
AcDbVertex
100
AcDbPolyFaceMeshVertex
 10
0.0000000000000107
 20
-0.4576815962791442
 30
0.1850383132696151
 70
   192
  0
VERTEX
  5
425
330
422
100
AcDbEntity
  8
3D-EQPM
100
AcDbVertex
100
AcDbPolyFaceMeshVertex
 10
0.0000000000000107
 20
-0.5520982593297958
 30
0.1579426936805248
 70
   192
  0
VERTEX
  5
426
330
422
100
AcDbEntity
  8
3D-EQPM
100
AcDbVertex
100
AcDbPolyFaceMeshVertex
 10
71.99999999999999
 20
-0.5520982593297958
 30
0.1579426936805248
 70
   192
  0
VERTEX
  5
427
330
422
100
AcDbEntity
  8
3D-EQPM
100
AcDbVertex
100
AcDbPolyFaceMeshVertex
 10
71.99999999999999
 20
-0.4576815962791442
 30
0.1850383132696151
 70
   192
  0
VERTEX
  5
428
330
422
100
AcDbEntity
  8
3D-EQPM
100
AcDbVertex
100
AcDbPolyFaceMeshVertex
 10
71.99999999999999
 20
-0.3619477450847625
 30
0.2070315778255462
 70
   192
  0
VERTEX
  5
429
330
422
100
AcDbEntity
  8
3D-EQPM
100
AcDbFaceRecord
 10
0.0
 20
0.0
 30
0.0
 70
   128
 71
     4
 72
     3
 73
    -2
 74
     5
  0
VERTEX
  5
42A
330
422
100
AcDbEntity
  8
3D-EQPM
100
AcDbFaceRecord
 10
0.0
 20
0.0
 30
0.0
 70
   128
 71
     1
 72
     6
 73
    -5
 74
     2
  0
SEQEND
  5
42B
330
422
100
AcDbEntity
  8
3D-EQPM
  0
POLYLINE
  5
42C
330
3EE
100
AcDbEntity
  8
3D-EQPM
100
AcDbPolyFaceMesh
 66
     1
 10
0.0
 20
0.0
 30
0.0
 70
    64
 71
     4
 72
     1
1001
REVIT
1002
{
1070
     4
1000
26971
1002
}
1002
{
1070
     2
1000
-2001350
1002
}
1002
{
1070
     3
1000
6341
1002
}
  0
VERTEX
  5
42D
330
42C
100
AcDbEntity
  8
3D-EQPM
100
AcDbVertex
100
AcDbPolyFaceMeshVertex
 10
71.99999999999999
 20
-0.3758903592824935
 30
0.2735008969902992
 70
   192
  0
VERTEX
  5
42E
330
42C
100
AcDbEntity
  8
3D-EQPM
100
AcDbVertex
100
AcDbPolyFaceMeshVertex
 10
71.99999999999999
 20
-0.3619477450847625
 30
0.2070315778255462
 70
   192
  0
VERTEX
  5
42F
330
42C
100
AcDbEntity
  8
3D-EQPM
100
AcDbVertex
100
AcDbPolyFaceMeshVertex
 10
0.0000000000000107
 20
-0.3619477450847625
 30
0.2070315778255462
 70
   192
  0
VERTEX
  5
430
330
42C
100
AcDbEntity
  8
3D-EQPM
100
AcDbVertex
100
AcDbPolyFaceMeshVertex
 10
0.0000000000000107
 20
-0.3758903592824935
 30
0.2735008969902992
 70
   192
  0
VERTEX
  5
431
330
42C
100
AcDbEntity
  8
3D-EQPM
100
AcDbFaceRecord
 10
0.0
 20
0.0
 30
0.0
 70
   128
 71
     1
 72
     2
 73
     3
 74
     4
  0
SEQEND
  5
432
330
42C
100
AcDbEntity
  8
3D-EQPM
  0
POLYLINE
  5
433
330
3EE
100
AcDbEntity
  8
3D-EQPM
100
AcDbPolyFaceMesh
 66
     1
 10
0.0
 20
0.0
 30
0.0
 70
    64
 71
    12
 72
     4
1001
REVIT
1002
{
1070
     4
1000
26971
1002
}
1002
{
1070
     2
1000
-2001350
1002
}
1002
{
1070
     3
1000
6341
1002
}
  0
VERTEX
  5
434
330
433
100
AcDbEntity
  8
3D-EQPM
100
AcDbVertex
100
AcDbPolyFaceMeshVertex
 10
71.99999999999999
 20
0.4576815962791442
 30
0.1850383132696151
 70
   192
  0
VERTEX
  5
435
330
433
100
AcDbEntity
  8
3D-EQPM
100
AcDbVertex
100
AcDbPolyFaceMeshVertex
 10
71.99999999999999
 20
0.3619477450847625
 30
0.2070315778255462
 70
   192
  0
VERTEX
  5
436
330
433
100
AcDbEntity
  8
3D-EQPM
100
AcDbVertex
100
AcDbPolyFaceMeshVertex
 10
71.99999999999999
 20
0.3758903592824935
 30
0.2735008969902992
 70
   192
  0
VERTEX
  5
437
330
433
100
AcDbEntity
  8
3D-EQPM
100
AcDbVertex
100
AcDbPolyFaceMeshVertex
 10
71.99999999999999
 20
0.4750510901212692
 30
0.2498006522655487
 70
   192
  0
VERTEX
  5
438
330
433
100
AcDbEntity
  8
3D-EQPM
100
AcDbVertex
100
AcDbPolyFaceMeshVertex
 10
71.99999999999999
 20
0.5727388858795166
 30
0.2206177935004234
 70
   192
  0
VERTEX
  5
439
330
433
100
AcDbEntity
  8
3D-EQPM
100
AcDbVertex
100
AcDbPolyFaceMeshVertex
 10
71.99999999999999
 20
0.5520982593297958
 30
0.1579426936805248
 70
   192
  0
VERTEX
  5
43A
330
433
100
AcDbEntity
  8
3D-EQPM
100
AcDbVertex
100
AcDbPolyFaceMeshVertex
 10
71.99999999999999
 20
-0.3619477450847625
 30
0.2070315778255462
 70
   192
  0
VERTEX
  5
43B
330
433
100
AcDbEntity
  8
3D-EQPM
100
AcDbVertex
100
AcDbPolyFaceMeshVertex
 10
71.99999999999999
 20
-0.4576815962791442
 30
0.1850383132696151
 70
   192
  0
VERTEX
  5
43C
330
433
100
AcDbEntity
  8
3D-EQPM
100
AcDbVertex
100
AcDbPolyFaceMeshVertex
 10
71.99999999999999
 20
-0.5520982593297958
 30
0.1579426936805248
 70
   192
  0
VERTEX
  5
43D
330
433
100
AcDbEntity
  8
3D-EQPM
100
AcDbVertex
100
AcDbPolyFaceMeshVertex
 10
71.99999999999999
 20
-0.5727388858795166
 30
0.2206177935004234
 70
   192
  0
VERTEX
  5
43E
330
433
100
AcDbEntity
  8
3D-EQPM
100
AcDbVertex
100
AcDbPolyFaceMeshVertex
 10
71.99999999999999
 20
-0.4750510901212692
 30
0.2498006522655487
 70
   192
  0
VERTEX
  5
43F
330
433
100
AcDbEntity
  8
3D-EQPM
100
AcDbVertex
100
AcDbPolyFaceMeshVertex
 10
71.99999999999999
 20
-0.3758903592824935
 30
0.2735008969902992
 70
   192
  0
VERTEX
  5
440
330
433
100
AcDbEntity
  8
3D-EQPM
100
AcDbFaceRecord
 10
0.0
 20
0.0
 30
0.0
 70
   128
 71
    -1
 72
     4
 73
     3
 74
     2
  0
VERTEX
  5
441
330
433
100
AcDbEntity
  8
3D-EQPM
100
AcDbFaceRecord
 10
0.0
 20
0.0
 30
0.0
 70
   128
 71
     6
 72
     5
 73
    -4
 74
     1
  0
VERTEX
  5
442
330
433
100
AcDbEntity
  8
3D-EQPM
100
AcDbFaceRecord
 10
0.0
 20
0.0
 30
0.0
 70
   128
 71
    11
 72
    10
 73
     9
 74
    -8
  0
VERTEX
  5
443
330
433
100
AcDbEntity
  8
3D-EQPM
100
AcDbFaceRecord
 10
0.0
 20
0.0
 30
0.0
 70
   128
 71
    12
 72
   -11
 73
     8
 74
     7
  0
SEQEND
  5
444
330
433
100
AcDbEntity
  8
3D-EQPM
  0
POLYLINE
  5
445
330
3EE
100
AcDbEntity
  8
3D-EQPM
100
AcDbPolyFaceMesh
 66
     1
 10
0.0
 20
0.0
 30
0.0
 70
    64
 71
    12
 72
     4
1001
REVIT
1002
{
1070
     4
1000
26971
1002
}
1002
{
1070
     2
1000
-2001350
1002
}
1002
{
1070
     3
1000
6341
1002
}
  0
VERTEX
  5
446
330
445
100
AcDbEntity
  8
3D-EQPM
100
AcDbVertex
100
AcDbPolyFaceMeshVertex
 10
0.0000000000000107
 20
0.4750510901212692
 30
0.2498006522655487
 70
   192
  0
VERTEX
  5
447
330
445
100
AcDbEntity
  8
3D-EQPM
100
AcDbVertex
100
AcDbPolyFaceMeshVertex
 10
0.0000000000000107
 20
0.3758903592824935
 30
0.2735008969902992
 70
   192
  0
VERTEX
  5
448
330
445
100
AcDbEntity
  8
3D-EQPM
100
AcDbVertex
100
AcDbPolyFaceMeshVertex
 10
0.0000000000000107
 20
0.3619477450847625
 30
0.2070315778255462
 70
   192
  0
VERTEX
  5
449
330
445
100
AcDbEntity
  8
3D-EQPM
100
AcDbVertex
100
AcDbPolyFaceMeshVertex
 10
0.0000000000000107
 20
0.4576815962791442
 30
0.1850383132696151
 70
   192
  0
VERTEX
  5
44A
330
445
100
AcDbEntity
  8
3D-EQPM
100
AcDbVertex
100
AcDbPolyFaceMeshVertex
 10
0.0000000000000107
 20
0.5520982593297958
 30
0.1579426936805248
 70
   192
  0
VERTEX
  5
44B
330
445
100
AcDbEntity
  8
3D-EQPM
100
AcDbVertex
100
AcDbPolyFaceMeshVertex
 10
0.0000000000000107
 20
0.5727388858795166
 30
0.2206177935004234
 70
   192
  0
VERTEX
  5
44C
330
445
100
AcDbEntity
  8
3D-EQPM
100
AcDbVertex
100
AcDbPolyFaceMeshVertex
 10
0.0000000000000107
 20
-0.5520982593297958
 30
0.1579426936805248
 70
   192
  0
VERTEX
  5
44D
330
445
100
AcDbEntity
  8
3D-EQPM
100
AcDbVertex
100
AcDbPolyFaceMeshVertex
 10
0.0000000000000107
 20
-0.4576815962791442
 30
0.1850383132696151
 70
   192
  0
VERTEX
  5
44E
330
445
100
AcDbEntity
  8
3D-EQPM
100
AcDbVertex
100
AcDbPolyFaceMeshVertex
 10
0.0000000000000107
 20
-0.3619477450847625
 30
0.2070315778255462
 70
   192
  0
VERTEX
  5
44F
330
445
100
AcDbEntity
  8
3D-EQPM
100
AcDbVertex
100
AcDbPolyFaceMeshVertex
 10
0.0000000000000107
 20
-0.3758903592824935
 30
0.2735008969902992
 70
   192
  0
VERTEX
  5
450
330
445
100
AcDbEntity
  8
3D-EQPM
100
AcDbVertex
100
AcDbPolyFaceMeshVertex
 10
0.0000000000000107
 20
-0.4750510901212692
 30
0.2498006522655487
 70
   192
  0
VERTEX
  5
451
330
445
100
AcDbEntity
  8
3D-EQPM
100
AcDbVertex
100
AcDbPolyFaceMeshVertex
 10
0.0000000000000107
 20
-0.5727388858795166
 30
0.2206177935004234
 70
   192
  0
VERTEX
  5
452
330
445
100
AcDbEntity
  8
3D-EQPM
100
AcDbFaceRecord
 10
0.0
 20
0.0
 30
0.0
 70
   128
 71
     1
 72
     6
 73
     5
 74
    -4
  0
VERTEX
  5
453
330
445
100
AcDbEntity
  8
3D-EQPM
100
AcDbFaceRecord
 10
0.0
 20
0.0
 30
0.0
 70
   128
 71
     2
 72
    -1
 73
     4
 74
     3
  0
VERTEX
  5
454
330
445
100
AcDbEntity
  8
3D-EQPM
100
AcDbFaceRecord
 10
0.0
 20
0.0
 30
0.0
 70
   128
 71
    -8
 72
    11
 73
    10
 74
     9
  0
VERTEX
  5
455
330
445
100
AcDbEntity
  8
3D-EQPM
100
AcDbFaceRecord
 10
0.0
 20
0.0
 30
0.0
 70
   128
 71
     7
 72
    12
 73
   -11
 74
     8
  0
SEQEND
  5
456
330
445
100
AcDbEntity
  8
3D-EQPM
  0
ENDBLK
  5
458
330
3EE
100
AcDbEntity
  8
0
100
AcDbBlockEnd
  0
ENDSEC
  0
SECTION
  2
ENTITIES
  0
INSERT
  5
37B
330
75
100
AcDbEntity
  8
3D-EQPM
100
AcDbBlockReference
  2
Support_Jolt - _084-Export0
 10
2.999999999999925
 20
0.0
 30
0.0
 50
89.99999999999991
1001
REVIT
1002
{
1070
     1
1000
18546
1002
}
1002
{
1070
     5
1000
28084
1002
}
1002
{
1070
     2
1000
-2001350
1002
}
  0
INSERT
  5
37C
330
75
100
AcDbEntity
  8
3D-EQPM
100
AcDbBlockReference
  2
Support_Jolt - _084-Export0
 10
9.99999999999992
 20
0.0
 30
0.0
 50
89.99999999999991
1001
REVIT
1002
{
1070
     1
1000
18728
1002
}
1002
{
1070
     5
1000
28084
1002
}
1002
{
1070
     2
1000
-2001350
1002
}
  0
INSERT
  5
37D
330
75
100
AcDbEntity
  8
3D-EQPM
100
AcDbBlockReference
  2
Support_Jolt - _084-Export0
 10
16.99999999999991
 20
0.0
 30
0.0
 50
89.99999999999991
1001
REVIT
1002
{
1070
     1
1000
23801
1002
}
1002
{
1070
     5
1000
28084
1002
}
1002
{
1070
     2
1000
-2001350
1002
}
  0
INSERT
  5
37E
330
75
100
AcDbEntity
  8
3D-EQPM
100
AcDbBlockReference
  2
Support_Jolt - _084-Export0
 10
23.99999999999991
 20
0.0
 30
0.0
 50
89.99999999999991
1001
REVIT
1002
{
1070
     1
1000
23803
1002
}
1002
{
1070
     5
1000
28084
1002
}
1002
{
1070
     2
1000
-2001350
1002
}
  0
INSERT
  5
37F
330
75
100
AcDbEntity
  8
3D-EQPM
100
AcDbBlockReference
  2
Support_Jolt - _084-Export0
 10
30.99999999999991
 20
0.0
 30
0.0
 50
89.99999999999991
1001
REVIT
1002
{
1070
     1
1000
23805
1002
}
1002
{
1070
     5
1000
28084
1002
}
1002
{
1070
     2
1000
-2001350
1002
}
  0
INSERT
  5
380
330
75
100
AcDbEntity
  8
3D-EQPM
100
AcDbBlockReference
  2
Support_Jolt - _084-Export0
 10
37.99999999999991
 20
0.0
 30
0.0
 50
89.99999999999991
1001
REVIT
1002
{
1070
     1
1000
23807
1002
}
1002
{
1070
     5
1000
28084
1002
}
1002
{
1070
     2
1000
-2001350
1002
}
  0
INSERT
  5
381
330
75
100
AcDbEntity
  8
3D-EQPM
100
AcDbBlockReference
  2
Support_Jolt - _084-Export0
 10
44.99999999999991
 20
0.0
 30
0.0
 50
89.99999999999991
1001
REVIT
1002
{
1070
     1
1000
23809
1002
}
1002
{
1070
     5
1000
28084
1002
}
1002
{
1070
     2
1000
-2001350
1002
}
  0
INSERT
  5
382
330
75
100
AcDbEntity
  8
3D-EQPM
100
AcDbBlockReference
  2
Support_Jolt - _084-Export0
 10
51.9999999999999
 20
0.0
 30
0.0
 50
89.99999999999991
1001
REVIT
1002
{
1070
     1
1000
23811
1002
}
1002
{
1070
     5
1000
28084
1002
}
1002
{
1070
     2
1000
-2001350
1002
}
  0
INSERT
  5
383
330
75
100
AcDbEntity
  8
3D-EQPM
100
AcDbBlockReference
  2
Support_Jolt - _084-Export0
 10
58.9999999999999
 20
0.0
 30
0.0
 50
89.99999999999991
1001
REVIT
1002
{
1070
     1
1000
23813
1002
}
1002
{
1070
     5
1000
28084
1002
}
1002
{
1070
     2
1000
-2001350
1002
}
  0
INSERT
  5
384
330
75
100
AcDbEntity
  8
3D-EQPM
100
AcDbBlockReference
  2
Support_Jolt - _084-Export0
 10
65.9999999999999
 20
0.0
 30
0.0
 50
89.99999999999991
1001
REVIT
1002
{
1070
     1
1000
26072
1002
}
1002
{
1070
     5
1000
28084
1002
}
1002
{
1070
     2
1000
-2001350
1002
}
  0
INSERT
  5
3ED
330
75
100
AcDbEntity
  8
0
100
AcDbBlockReference
  2
FamilyGeomCombi_628-Export0
 10
0.0
 20
0.0
 30
0.0
  0
INSERT
  5
459
330
75
100
AcDbEntity
  8
0
100
AcDbBlockReference
  2
FamilyGeomCombi_629-Export0
 10
0.0
 20
0.0
 30
0.0
  0
ENDSEC
  0
SECTION
  2
OBJECTS
  0
DICTIONARY
  5
C
330
0
100
AcDbDictionary
281
     1
  3
ACAD_COLOR
350
6B
  3
ACAD_GROUP
350
D
  3
ACAD_LAYOUT
350
6A
  3
ACAD_MATERIAL
350
10
  3
ACAD_MLEADERSTYLE
350
6E
  3
ACAD_MLINESTYLE
350
67
  3
ACAD_PLOTSETTINGS
350
69
  3
ACAD_PLOTSTYLENAME
350
E
  3
ACAD_SCALELIST
350
3A
  3
ACAD_TABLESTYLE
350
6C
  3
ACAD_VISUALSTYLE
350
29
  3
ACDB_RECOMPOSE_DATA
350
478
  3
AcDbVariableDictionary
350
467
  3
REVIT_DICTIONARY
350
462
  0
DICTIONARY
  5
6B
102
{ACAD_REACTORS
330
C
102
}
330
C
100
AcDbDictionary
281
     1
  0
DICTIONARY
  5
D
102
{ACAD_REACTORS
330
C
102
}
330
C
100
AcDbDictionary
281
     1
  0
DICTIONARY
  5
6A
102
{ACAD_REACTORS
330
C
102
}
330
C
100
AcDbDictionary
281
     1
  3
Layout1
350
74
  3
Layout2
350
7C
  3
Model
350
78
  0
DICTIONARY
  5
10
102
{ACAD_REACTORS
330
C
102
}
330
C
100
AcDbDictionary
281
     1
  3
ByBlock
350
19
  3
ByLayer
350
11
  3
Global
350
21
  3
RevitMaterialDefinition2544
350
45F
  3
RevitMaterialDefinition26971
350
45C
  0
DICTIONARY
  5
6E
102
{ACAD_REACTORS
330
C
102
}
330
C
100
AcDbDictionary
281
     1
  3
Standard
350
6F
  0
DICTIONARY
  5
67
102
{ACAD_REACTORS
330
C
102
}
330
C
100
AcDbDictionary
281
     1
  3
Standard
350
68
  0
DICTIONARY
  5
69
102
{ACAD_REACTORS
330
C
102
}
330
C
100
AcDbDictionary
281
     1
  0
ACDBDICTIONARYWDFLT
  5
E
102
{ACAD_REACTORS
330
C
102
}
330
C
100
AcDbDictionary
281
     1
  3
Normal
350
F
100
AcDbDictionaryWithDefault
340
F
  0
DICTIONARY
  5
3A
102
{ACAD_REACTORS
330
C
102
}
330
C
100
AcDbDictionary
281
     1
  3
A0
350
3B
  3
A1
350
3C
  3
A2
350
3D
  3
A3
350
3E
  3
A4
350
3F
  3
A5
350
40
  3
A6
350
41
  3
A7
350
42
  3
A8
350
43
  3
A9
350
44
  3
B0
350
45
  3
B1
350
46
  3
B2
350
47
  3
B3
350
48
  3
B4
350
49
  3
B5
350
4A
  3
B6
350
4B
  3
B7
350
4C
  3
B8
350
4D
  3
B9
350
4E
  3
C0
350
4F
  3
C1
350
50
  3
C2
350
51
  3
C3
350
52
  3
C4
350
53
  3
C5
350
54
  3
C6
350
55
  3
C7
350
56
  3
C8
350
57
  3
C9
350
58
  3
D0
350
59
  3
D1
350
5A
  3
D2
350
5B
  0
DICTIONARY
  5
6C
102
{ACAD_REACTORS
330
C
102
}
330
C
100
AcDbDictionary
281
     1
  3
Standard
350
6D
  0
DICTIONARY
  5
29
102
{ACAD_REACTORS
330
C
102
}
330
C
100
AcDbDictionary
281
     1
  3
2dWireframe
350
2F
  3
3D Hidden
350
31
  3
3dWireframe
350
30
  3
Basic
350
2E
  3
Brighten
350
35
  3
ColorChange
350
39
  3
Conceptual
350
32
  3
Dim
350
34
  3
Facepattern
350
38
  3
Flat
350
2A
  3
FlatWithEdges
350
2B
  3
Gouraud
350
2C
  3
GouraudWithEdges
350
2D
  3
Linepattern
350
37
  3
Realistic
350
33
  3
Thicken
350
36
  0
XRECORD
  5
478
102
{ACAD_REACTORS
330
C
102
}
330
C
100
AcDbXrecord
280
     1
 90
        1
330
6D
  0
DICTIONARY
  5
467
102
{ACAD_REACTORS
330
C
102
}
330
C
100
AcDbDictionary
281
     1
  3
CANNOSCALE
350
46B
  3
CMLEADERSTYLE
350
469
  3
CTABLESTYLE
350
468
  3
DIMASSOC
350
472
  3
HIDETEXT
350
471
  3
INDEXCTL
350
470
  3
LATITUDE
350
473
  3
LAYEREVAL
350
46D
  3
LAYERNOTIFY
350
46E
  3
LIGHTINGUNITS
350
46C
  3
LONGITUDE
350
474
  3
MSLTSCALE
350
46A
  3
SORTENTS
350
46F
  3
TIMEZONE
350
475
  0
DICTIONARY
  5
462
102
{ACAD_REACTORS
330
C
102
}
330
C
100
AcDbDictionary
281
     1
  3
REVIT_CATEGORY_MAPPING
350
464
  3
REVIT_SUB_CATEGORY_MAPPING
350
465
  3
REVIT_TYPE_MAPPING
350
463
  0
LAYOUT
  5
74
102
{ACAD_XDICTIONARY
360
47D
102
}
102
{ACAD_REACTORS
330
6A
102
}
330
6A
100
AcDbPlotSettings
  1

  2

  4

  6

 40
0.0
 41
0.0
 42
0.0
 43
0.0
 44
0.0
 45
0.0
 46
0.0
 47
0.0
 48
0.0
 49
0.0
140
0.0
141
0.0
142
1.0
143
1.0
 70
   688
 72
     0
 73
     0
 74
     5
  7

 75
    16
147
1.0
148
0.0
149
0.0
100
AcDbLayout
  1
Layout1
 70
     1
 71
     1
 10
0.0
 20
0.0
 11
12.0
 21
9.0
 12
0.0
 22
0.0
 32
0.0
 14
0.0
 24
0.0
 34
0.0
 15
0.0
 25
0.0
 35
0.0
146
0.0
 13
0.0
 23
0.0
 33
0.0
 16
1.0
 26
0.0
 36
0.0
 17
0.0
 27
1.0
 37
0.0
 76
     0
330
71
  0
LAYOUT
  5
7C
102
{ACAD_XDICTIONARY
360
481
102
}
102
{ACAD_REACTORS
330
6A
102
}
330
6A
100
AcDbPlotSettings
  1

  2

  4

  6

 40
0.0
 41
0.0
 42
0.0
 43
0.0
 44
0.0
 45
0.0
 46
0.0
 47
0.0
 48
0.0
 49
0.0
140
0.0
141
0.0
142
1.0
143
1.0
 70
   688
 72
     0
 73
     0
 74
     5
  7

 75
    16
147
1.0
148
0.0
149
0.0
100
AcDbLayout
  1
Layout2
 70
     1
 71
     2
 10
0.0
 20
0.0
 11
12.0
 21
9.0
 12
0.0
 22
0.0
 32
0.0
 14
0.0
 24
0.0
 34
0.0
 15
0.0
 25
0.0
 35
0.0
146
0.0
 13
0.0
 23
0.0
 33
0.0
 16
1.0
 26
0.0
 36
0.0
 17
0.0
 27
1.0
 37
0.0
 76
     0
330
79
  0
LAYOUT
  5
78
102
{ACAD_XDICTIONARY
360
47F
102
}
102
{ACAD_REACTORS
330
6A
102
}
330
6A
100
AcDbPlotSettings
  1

  2

  4

  6

 40
0.0
 41
0.0
 42
0.0
 43
0.0
 44
0.0
 45
0.0
 46
0.0
 47
0.0
 48
0.0
 49
0.0
140
0.0
141
0.0
142
1.0
143
1.0
 70
  1712
 72
     0
 73
     0
 74
     0
  7

 75
     0
147
1.0
148
0.0
149
0.0
100
AcDbLayout
  1
Model
 70
     1
 71
     0
 10
0.0
 20
0.0
 11
12.0
 21
9.0
 12
0.0
 22
0.0
 32
0.0
 14
0.0
 24
0.0
 34
0.0
 15
0.0
 25
0.0
 35
0.0
146
0.0
 13
0.0
 23
0.0
 33
0.0
 16
1.0
 26
0.0
 36
0.0
 17
0.0
 27
1.0
 37
0.0
 76
     0
330
75
  0
MATERIAL
  5
19
102
{ACAD_XDICTIONARY
360
1A
102
}
102
{ACAD_REACTORS
330
10
102
}
330
10
100
AcDbMaterial
  1
ByBlock
 72
     0
 43
0.0208333333333333
 43
0.0
 43
0.0
 43
0.0
 43
0.0
 43
0.0208333333333333
 43
0.0
 43
0.0
 43
0.0
 43
0.0
 43
1.0
 43
0.0
 43
0.0
 43
0.0
 43
0.0
 43
1.0
 77
     0
 47
0.0208333333333333
 47
0.0
 47
0.0
 47
0.0
 47
0.0
 47
0.0208333333333333
 47
0.0
 47
0.0
 47
0.0
 47
0.0
 47
1.0
 47
0.0
 47
0.0
 47
0.0
 47
0.0
 47
1.0
171
     0
 49
0.0208333333333333
 49
0.0
 49
0.0
 49
0.0
 49
0.0
 49
0.0208333333333333
 49
0.0
 49
0.0
 49
0.0
 49
0.0
 49
1.0
 49
0.0
 49
0.0
 49
0.0
 49
0.0
 49
1.0
175
     0
142
0.0208333333333333
142
0.0
142
0.0
142
0.0
142
0.0
142
0.0208333333333333
142
0.0
142
0.0
142
0.0
142
0.0
142
1.0
142
0.0
142
0.0
142
0.0
142
0.0
142
1.0
179
     0
144
0.0208333333333333
144
0.0
144
0.0
144
0.0
144
0.0
144
0.0208333333333333
144
0.0
144
0.0
144
0.0
144
0.0
144
1.0
144
0.0
144
0.0
144
0.0
144
0.0
144
1.0
147
0.0208333333333333
147
0.0
147
0.0
147
0.0
147
0.0
147
0.0208333333333333
147
0.0
147
0.0
147
0.0
147
0.0
147
1.0
147
0.0
147
0.0
147
0.0
147
0.0
147
1.0
  0
MATERIAL
  5
11
102
{ACAD_XDICTIONARY
360
12
102
}
102
{ACAD_REACTORS
330
10
102
}
330
10
100
AcDbMaterial
  1
ByLayer
 72
     0
 43
0.0208333333333333
 43
0.0
 43
0.0
 43
0.0
 43
0.0
 43
0.0208333333333333
 43
0.0
 43
0.0
 43
0.0
 43
0.0
 43
1.0
 43
0.0
 43
0.0
 43
0.0
 43
0.0
 43
1.0
 77
     0
 47
0.0208333333333333
 47
0.0
 47
0.0
 47
0.0
 47
0.0
 47
0.0208333333333333
 47
0.0
 47
0.0
 47
0.0
 47
0.0
 47
1.0
 47
0.0
 47
0.0
 47
0.0
 47
0.0
 47
1.0
171
     0
 49
0.0208333333333333
 49
0.0
 49
0.0
 49
0.0
 49
0.0
 49
0.0208333333333333
 49
0.0
 49
0.0
 49
0.0
 49
0.0
 49
1.0
 49
0.0
 49
0.0
 49
0.0
 49
0.0
 49
1.0
175
     0
142
0.0208333333333333
142
0.0
142
0.0
142
0.0
142
0.0
142
0.0208333333333333
142
0.0
142
0.0
142
0.0
142
0.0
142
1.0
142
0.0
142
0.0
142
0.0
142
0.0
142
1.0
179
     0
144
0.0208333333333333
144
0.0
144
0.0
144
0.0
144
0.0
144
0.0208333333333333
144
0.0
144
0.0
144
0.0
144
0.0
144
1.0
144
0.0
144
0.0
144
0.0
144
0.0
144
1.0
147
0.0208333333333333
147
0.0
147
0.0
147
0.0
147
0.0
147
0.0208333333333333
147
0.0
147
0.0
147
0.0
147
0.0
147
1.0
147
0.0
147
0.0
147
0.0
147
0.0
147
1.0
  0
MATERIAL
  5
21
102
{ACAD_XDICTIONARY
360
22
102
}
102
{ACAD_REACTORS
330
10
102
}
330
10
100
AcDbMaterial
  1
Global
 72
     0
 43
0.0208333333333333
 43
0.0
 43
0.0
 43
0.0
 43
0.0
 43
0.0208333333333333
 43
0.0
 43
0.0
 43
0.0
 43
0.0
 43
1.0
 43
0.0
 43
0.0
 43
0.0
 43
0.0
 43
1.0
 77
     0
 47
0.0208333333333333
 47
0.0
 47
0.0
 47
0.0
 47
0.0
 47
0.0208333333333333
 47
0.0
 47
0.0
 47
0.0
 47
0.0
 47
1.0
 47
0.0
 47
0.0
 47
0.0
 47
0.0
 47
1.0
171
     0
 49
0.0208333333333333
 49
0.0
 49
0.0
 49
0.0
 49
0.0
 49
0.0208333333333333
 49
0.0
 49
0.0
 49
0.0
 49
0.0
 49
1.0
 49
0.0
 49
0.0
 49
0.0
 49
0.0
 49
1.0
175
     0
142
0.0208333333333333
142
0.0
142
0.0
142
0.0
142
0.0
142
0.0208333333333333
142
0.0
142
0.0
142
0.0
142
0.0
142
1.0
142
0.0
142
0.0
142
0.0
142
0.0
142
1.0
179
     0
144
0.0208333333333333
144
0.0
144
0.0
144
0.0
144
0.0
144
0.0208333333333333
144
0.0
144
0.0
144
0.0
144
0.0
144
1.0
144
0.0
144
0.0
144
0.0
144
0.0
144
1.0
147
0.0208333333333333
147
0.0
147
0.0
147
0.0
147
0.0
147
0.0208333333333333
147
0.0
147
0.0
147
0.0
147
0.0
147
1.0
147
0.0
147
0.0
147
0.0
147
0.0
147
1.0
  0
MATERIAL
  5
45F
102
{ACAD_XDICTIONARY
360
460
102
}
102
{ACAD_REACTORS
330
10
102
}
330
10
100
AcDbMaterial
  1
RevitMaterialDefinition2544
 70
     1
 90
-1031133660
 71
     1
 91
-1031133660
  3
C:\Program Files\Revit Architecture 2009\Data\Rendering\assetlibrary_base.fbm\Materials\PlasticVinyl\Presets\plastic_Smooth_bump.jpg
 73
     1
 76
     1
 45
0.5
 77
     0
175
     0
145
0.0
  0
MATERIAL
  5
45C
102
{ACAD_XDICTIONARY
360
45D
102
}
102
{ACAD_REACTORS
330
10
102
}
330
10
100
AcDbMaterial
  1
RevitMaterialDefinition26971
 70
     1
 90
-1027911634
 71
     1
 91
-1027911634
  3
C:\Users\Robert\AppData\Local\Temp
 73
     1
 76
     1
 45
0.5
 77
     0
175
     0
145
0.0
  0
MLEADERSTYLE
  5
6F
102
{ACAD_REACTORS
330
6E
102
}
330
6E
100
AcDbMLeaderStyle
170
     2
171
     1
172
     0
 90
        2
 40
0.0
 41
0.0
173
     1
 91
-1056964608
340
63
 92
       -2
290
     1
 42
0.09
291
     1
 43
0.36
  3
Standard
 44
0.18
300

342
5D
174
     1
178
     6
175
     1
176
     0
 93
-1056964608
 45
0.18
292
     0
297
     0
 46
0.18
 94
-1056964608
 47
1.0
 49
1.0
140
1.0
293
     1
141
0.0
294
     1
177
     0
142
1.0
295
     0
296
     0
143
0.125
1001
ACAD_MLEADERVER
1070
     2
  0
MLINESTYLE
  5
68
102
{ACAD_REACTORS
330
67
102
}
330
67
100
AcDbMlineStyle
  2
STANDARD
 70
     0
  3

 62
   256
 51
90.0
 52
90.0
 71
     2
 49
0.5
 62
   256
  6
BYLAYER
 49
-0.5
 62
   256
  6
BYLAYER
  0
ACDBPLACEHOLDER
  5
F
102
{ACAD_REACTORS
330
E
102
}
330
E
  0
SCALE
  5
3B
102
{ACAD_REACTORS
330
3A
102
}
330
3A
100
AcDbScale
 70
     0
300
1:1
140
1.0
141
1.0
290
     1
  0
SCALE
  5
3C
102
{ACAD_REACTORS
330
3A
102
}
330
3A
100
AcDbScale
 70
     0
300
1:2
140
1.0
141
2.0
290
     0
  0
SCALE
  5
3D
102
{ACAD_REACTORS
330
3A
102
}
330
3A
100
AcDbScale
 70
     0
300
1:4
140
1.0
141
4.0
290
     0
  0
SCALE
  5
3E
102
{ACAD_REACTORS
330
3A
102
}
330
3A
100
AcDbScale
 70
     0
300
1:5
140
1.0
141
5.0
290
     0
  0
SCALE
  5
3F
102
{ACAD_REACTORS
330
3A
102
}
330
3A
100
AcDbScale
 70
     0
300
1:8
140
1.0
141
8.0
290
     0
  0
SCALE
  5
40
102
{ACAD_REACTORS
330
3A
102
}
330
3A
100
AcDbScale
 70
     0
300
1:10
140
1.0
141
10.0
290
     0
  0
SCALE
  5
41
102
{ACAD_REACTORS
330
3A
102
}
330
3A
100
AcDbScale
 70
     0
300
1:16
140
1.0
141
16.0
290
     0
  0
SCALE
  5
42
102
{ACAD_REACTORS
330
3A
102
}
330
3A
100
AcDbScale
 70
     0
300
1:20
140
1.0
141
20.0
290
     0
  0
SCALE
  5
43
102
{ACAD_REACTORS
330
3A
102
}
330
3A
100
AcDbScale
 70
     0
300
1:30
140
1.0
141
30.0
290
     0
  0
SCALE
  5
44
102
{ACAD_REACTORS
330
3A
102
}
330
3A
100
AcDbScale
 70
     0
300
1:40
140
1.0
141
40.0
290
     0
  0
SCALE
  5
45
102
{ACAD_REACTORS
330
3A
102
}
330
3A
100
AcDbScale
 70
     0
300
1:50
140
1.0
141
50.0
290
     0
  0
SCALE
  5
46
102
{ACAD_REACTORS
330
3A
102
}
330
3A
100
AcDbScale
 70
     0
300
1:100
140
1.0
141
100.0
290
     0
  0
SCALE
  5
47
102
{ACAD_REACTORS
330
3A
102
}
330
3A
100
AcDbScale
 70
     0
300
2:1
140
2.0
141
1.0
290
     0
  0
SCALE
  5
48
102
{ACAD_REACTORS
330
3A
102
}
330
3A
100
AcDbScale
 70
     0
300
4:1
140
4.0
141
1.0
290
     0
  0
SCALE
  5
49
102
{ACAD_REACTORS
330
3A
102
}
330
3A
100
AcDbScale
 70
     0
300
8:1
140
8.0
141
1.0
290
     0
  0
SCALE
  5
4A
102
{ACAD_REACTORS
330
3A
102
}
330
3A
100
AcDbScale
 70
     0
300
10:1
140
10.0
141
1.0
290
     0
  0
SCALE
  5
4B
102
{ACAD_REACTORS
330
3A
102
}
330
3A
100
AcDbScale
 70
     0
300
100:1
140
100.0
141
1.0
290
     0
  0
SCALE
  5
4C
102
{ACAD_REACTORS
330
3A
102
}
330
3A
100
AcDbScale
 70
     0
300
1/128" = 1'-0"
140
0.0078125
141
12.0
290
     0
  0
SCALE
  5
4D
102
{ACAD_REACTORS
330
3A
102
}
330
3A
100
AcDbScale
 70
     0
300
1/64" = 1'-0"
140
0.015625
141
12.0
290
     0
  0
SCALE
  5
4E
102
{ACAD_REACTORS
330
3A
102
}
330
3A
100
AcDbScale
 70
     0
300
1/32" = 1'-0"
140
0.03125
141
12.0
290
     0
  0
SCALE
  5
4F
102
{ACAD_REACTORS
330
3A
102
}
330
3A
100
AcDbScale
 70
     0
300
1/16" = 1'-0"
140
0.0625
141
12.0
290
     0
  0
SCALE
  5
50
102
{ACAD_REACTORS
330
3A
102
}
330
3A
100
AcDbScale
 70
     0
300
3/32" = 1'-0"
140
0.09375
141
12.0
290
     0
  0
SCALE
  5
51
102
{ACAD_REACTORS
330
3A
102
}
330
3A
100
AcDbScale
 70
     0
300
1/8" = 1'-0"
140
0.125
141
12.0
290
     0
  0
SCALE
  5
52
102
{ACAD_REACTORS
330
3A
102
}
330
3A
100
AcDbScale
 70
     0
300
3/16" = 1'-0"
140
0.1875
141
12.0
290
     0
  0
SCALE
  5
53
102
{ACAD_REACTORS
330
3A
102
}
330
3A
100
AcDbScale
 70
     0
300
1/4" = 1'-0"
140
0.25
141
12.0
290
     0
  0
SCALE
  5
54
102
{ACAD_REACTORS
330
3A
102
}
330
3A
100
AcDbScale
 70
     0
300
3/8" = 1'-0"
140
0.375
141
12.0
290
     0
  0
SCALE
  5
55
102
{ACAD_REACTORS
330
3A
102
}
330
3A
100
AcDbScale
 70
     0
300
1/2" = 1'-0"
140
0.5
141
12.0
290
     0
  0
SCALE
  5
56
102
{ACAD_REACTORS
330
3A
102
}
330
3A
100
AcDbScale
 70
     0
300
3/4" = 1'-0"
140
0.75
141
12.0
290
     0
  0
SCALE
  5
57
102
{ACAD_REACTORS
330
3A
102
}
330
3A
100
AcDbScale
 70
     0
300
1" = 1'-0"
140
1.0
141
12.0
290
     0
  0
SCALE
  5
58
102
{ACAD_REACTORS
330
3A
102
}
330
3A
100
AcDbScale
 70
     0
300
1-1/2" = 1'-0"
140
1.5
141
12.0
290
     0
  0
SCALE
  5
59
102
{ACAD_REACTORS
330
3A
102
}
330
3A
100
AcDbScale
 70
     0
300
3" = 1'-0"
140
3.0
141
12.0
290
     0
  0
SCALE
  5
5A
102
{ACAD_REACTORS
330
3A
102
}
330
3A
100
AcDbScale
 70
     0
300
6" = 1'-0"
140
6.0
141
12.0
290
     0
  0
SCALE
  5
5B
102
{ACAD_REACTORS
330
3A
102
}
330
3A
100
AcDbScale
 70
     0
300
1'-0" = 1'-0"
140
12.0
141
12.0
290
     0
  0
TABLESTYLE
  5
6D
102
{ACAD_XDICTIONARY
360
476
102
}
102
{ACAD_REACTORS
330
6C
102
}
330
6C
100
AcDbTableStyle
  3
Standard
 70
     0
 71
     0
 40
0.06
 41
0.06
280
     0
281
     0
  7
Standard
140
0.18
170
     2
 62
     0
 63
     7
283
     0
274
    -2
284
     1
 64
     0
275
    -2
285
     1
 65
     0
276
    -2
286
     1
 66
     0
277
    -2
287
     1
 67
     0
278
    -2
288
     1
 68
     0
279
    -2
289
     1
 69
     0
  7
Standard
140
0.25
170
     5
 62
     0
 63
     7
283
     0
274
    -2
284
     1
 64
     0
275
    -2
285
     1
 65
     0
276
    -2
286
     1
 66
     0
277
    -2
287
     1
 67
     0
278
    -2
288
     1
 68
     0
279
    -2
289
     1
 69
     0
  7
Standard
140
0.18
170
     5
 62
     0
 63
     7
283
     0
274
    -2
284
     1
 64
     0
275
    -2
285
     1
 65
     0
276
    -2
286
     1
 66
     0
277
    -2
287
     1
 67
     0
278
    -2
288
     1
 68
     0
279
    -2
289
     1
 69
     0
  0
VISUALSTYLE
  5
2F
102
{ACAD_REACTORS
330
29
102
}
330
29
100
AcDbVisualStyle
  2
2dWireframe
 70
     4
 71
     0
 72
     2
 73
     0
 90
        0
 40
-0.6
 41
-30.0
 62
     5
 63
     7
 74
     1
 91
        4
 64
     7
 65
   257
 75
     1
175
     1
 42
1.0
 92
        0
 66
   257
 43
1.0
 76
     1
 77
     6
 78
     2
 67
     7
 79
     5
170
     0
171
     0
290
     0
174
     0
 93
        1
 44
0.0
173
     0
291
     0
 45
0.0
1001
ACAD
1000
AcDbSavedByObjectVersion
1070
     0
  0
VISUALSTYLE
  5
31
102
{ACAD_REACTORS
330
29
102
}
330
29
100
AcDbVisualStyle
  2
3D Hidden
 70
     6
 71
     1
 72
     2
 73
     2
 90
        0
 40
-0.6
 41
-30.0
 62
     5
 63
     7
 74
     2
 91
        2
 64
     7
 65
   257
 75
     2
175
     1
 42
40.0
 92
        0
 66
   257
 43
1.0
 76
     1
 77
     6
 78
     2
 67
     7
 79
     3
170
     0
171
     0
290
     0
174
     0
 93
        1
 44
0.0
173
     0
291
     0
 45
0.0
1001
ACAD
1000
AcDbSavedByObjectVersion
1070
     0
  0
VISUALSTYLE
  5
30
102
{ACAD_REACTORS
330
29
102
}
330
29
100
AcDbVisualStyle
  2
3dWireframe
 70
     5
 71
     0
 72
     2
 73
     0
 90
        0
 40
-0.6
 41
-30.0
 62
     5
 63
     7
 74
     1
 91
        4
 64
     7
 65
   257
 75
     1
175
     1
 42
1.0
 92
        0
 66
   257
 43
1.0
 76
     1
 77
     6
 78
     2
 67
     7
 79
     5
170
     0
171
     0
290
     0
174
     0
 93
        1
 44
0.0
173
     0
291
     0
 45
0.0
1001
ACAD
1000
AcDbSavedByObjectVersion
1070
     0
  0
VISUALSTYLE
  5
2E
102
{ACAD_REACTORS
330
29
102
}
330
29
100
AcDbVisualStyle
  2
Basic
 70
     7
 71
     1
 72
     0
 73
     1
 90
        0
 40
-0.6
 41
-30.0
 62
     5
 63
     7
 74
     0
 91
        4
 64
     7
 65
   257
 75
     1
175
     1
 42
1.0
 92
        8
 66
     7
 43
1.0
 76
     1
 77
     6
 78
     2
 67
     7
 79
     5
170
     0
171
     0
290
     0
174
     0
 93
        1
 44
0.0
173
     0
291
     1
 45
0.0
1001
ACAD
1000
AcDbSavedByObjectVersion
1070
     0
  0
VISUALSTYLE
  5
35
102
{ACAD_REACTORS
330
29
102
}
330
29
100
AcDbVisualStyle
  2
Brighten
 70
    12
 71
     2
 72
     2
 73
     0
 90
        0
 40
-0.6
 41
-30.0
 62
     5
 63
     7
 74
     1
 91
        4
 64
     7
 65
   257
 75
     1
175
     1
 42
1.0
 92
        8
 66
     7
 43
1.0
 76
     1
 77
     6
 78
     2
 67
     7
 79
     5
170
     0
171
     0
290
     0
174
     0
 93
        1
 44
50.0
173
     0
291
     1
 45
0.0
1001
ACAD
1000
AcDbSavedByObjectVersion
1070
     0
  0
VISUALSTYLE
  5
39
102
{ACAD_REACTORS
330
29
102
}
330
29
100
AcDbVisualStyle
  2
ColorChange
 70
    16
 71
     2
 72
     2
 73
     3
 90
        0
 40
-0.6
 41
-30.0
 62
     5
 63
     8
 74
     1
 91
        4
 64
     7
 65
   257
 75
     1
175
     1
 42
1.0
 92
        8
 66
     8
 43
1.0
 76
     1
 77
     6
 78
     2
 67
     7
 79
     5
170
     0
171
     0
290
     0
174
     0
 93
        1
 44
0.0
173
     0
291
     1
 45
0.0
1001
ACAD
1000
AcDbSavedByObjectVersion
1070
     0
  0
VISUALSTYLE
  5
32
102
{ACAD_REACTORS
330
29
102
}
330
29
100
AcDbVisualStyle
  2
Conceptual
 70
     9
 71
     3
 72
     2
 73
     0
 90
        0
 40
-0.6
 41
-30.0
 62
     5
 63
     7
 74
     2
 91
        2
 64
     7
 65
   257
 75
     1
175
     1
 42
40.0
 92
        8
 66
     7
 43
1.0
 76
     1
 77
     6
 78
     2
 67
     7
 79
     3
170
     0
171
     0
290
     0
174
     0
 93
        1
 44
0.0
173
     0
291
     0
 45
0.0
1001
ACAD
1000
AcDbSavedByObjectVersion
1070
     0
  0
VISUALSTYLE
  5
34
102
{ACAD_REACTORS
330
29
102
}
330
29
100
AcDbVisualStyle
  2
Dim
 70
    11
 71
     2
 72
     2
 73
     0
 90
        0
 40
-0.6
 41
-30.0
 62
     5
 63
     7
 74
     1
 91
        4
 64
     7
 65
   257
 75
     1
175
     1
 42
1.0
 92
        8
 66
     7
 43
1.0
 76
     1
 77
     6
 78
     2
 67
     7
 79
     5
170
     0
171
     0
290
     0
174
     0
 93
        1
 44
-50.0
173
     0
291
     1
 45
0.0
1001
ACAD
1000
AcDbSavedByObjectVersion
1070
     0
  0
VISUALSTYLE
  5
38
102
{ACAD_REACTORS
330
29
102
}
330
29
100
AcDbVisualStyle
  2
Facepattern
 70
    15
 71
     2
 72
     2
 73
     0
 90
        0
 40
-0.6
 41
-30.0
 62
     5
 63
     7
 74
     1
 91
        4
 64
     7
 65
   257
 75
     1
175
     1
 42
1.0
 92
        8
 66
     7
 43
1.0
 76
     1
 77
     6
 78
     2
 67
     7
 79
     5
170
     0
171
     0
290
     0
174
     0
 93
        1
 44
0.0
173
     0
291
     1
 45
0.0
1001
ACAD
1000
AcDbSavedByObjectVersion
1070
     0
  0
VISUALSTYLE
  5
2A
102
{ACAD_REACTORS
330
29
102
}
330
29
100
AcDbVisualStyle
  2
Flat
 70
     0
 71
     2
 72
     1
 73
     1
 90
        2
 40
-0.6
 41
30.0
 62
     5
 63
     7
 74
     0
 91
        4
 64
     7
 65
   257
 75
     1
175
     1
 42
1.0
 92
        8
 66
     7
 43
1.0
 76
     1
 77
     6
 78
     2
 67
     7
 79
     5
170
     0
171
     0
290
     0
174
     0
 93
       13
 44
0.0
173
     0
291
     1
 45
0.0
1001
ACAD
1000
AcDbSavedByObjectVersion
1070
     0
  0
VISUALSTYLE
  5
2B
102
{ACAD_REACTORS
330
29
102
}
330
29
100
AcDbVisualStyle
  2
FlatWithEdges
 70
     1
 71
     2
 72
     1
 73
     1
 90
        2
 40
-0.6
 41
30.0
 62
     5
 63
     7
 74
     1
 91
        4
 64
     7
 65
   257
 75
     1
175
     1
 42
1.0
 92
        0
 66
   257
 43
1.0
 76
     1
 77
     6
 78
     2
 67
     7
 79
     5
170
     0
171
     0
290
     0
174
     0
 93
       13
 44
0.0
173
     0
291
     1
 45
0.0
1001
ACAD
1000
AcDbSavedByObjectVersion
1070
     0
  0
VISUALSTYLE
  5
2C
102
{ACAD_REACTORS
330
29
102
}
330
29
100
AcDbVisualStyle
  2
Gouraud
 70
     2
 71
     2
 72
     2
 73
     1
 90
        2
 40
-0.6
 41
30.0
 62
     5
 63
     7
 74
     0
 91
        4
 64
     7
 65
   257
 75
     1
175
     1
 42
1.0
 92
        0
 66
     7
 43
1.0
 76
     1
 77
     6
 78
     2
 67
     7
 79
     5
170
     0
171
     0
290
     0
174
     0
 93
       13
 44
0.0
173
     0
291
     1
 45
0.0
1001
ACAD
1000
AcDbSavedByObjectVersion
1070
     0
  0
VISUALSTYLE
  5
2D
102
{ACAD_REACTORS
330
29
102
}
330
29
100
AcDbVisualStyle
  2
GouraudWithEdges
 70
     3
 71
     2
 72
     2
 73
     1
 90
        2
 40
-0.6
 41
30.0
 62
     5
 63
     7
 74
     1
 91
        4
 64
     7
 65
   257
 75
     1
175
     1
 42
1.0
 92
        0
 66
   257
 43
1.0
 76
     1
 77
     6
 78
     2
 67
     7
 79
     5
170
     0
171
     0
290
     0
174
     0
 93
       13
 44
0.0
173
     0
291
     1
 45
0.0
1001
ACAD
1000
AcDbSavedByObjectVersion
1070
     0
  0
VISUALSTYLE
  5
37
102
{ACAD_REACTORS
330
29
102
}
330
29
100
AcDbVisualStyle
  2
Linepattern
 70
    14
 71
     2
 72
     2
 73
     0
 90
        0
 40
-0.6
 41
-30.0
 62
     5
 63
     7
 74
     1
 91
        4
 64
     7
 65
   257
 75
     7
175
     7
 42
1.0
 92
        8
 66
     7
 43
1.0
 76
     1
 77
     6
 78
     2
 67
     7
 79
     5
170
     0
171
     0
290
     0
174
     0
 93
        1
 44
0.0
173
     0
291
     1
 45
0.0
1001
ACAD
1000
AcDbSavedByObjectVersion
1070
     0
  0
VISUALSTYLE
  5
33
102
{ACAD_REACTORS
330
29
102
}
330
29
100
AcDbVisualStyle
  2
Realistic
 70
     8
 71
     2
 72
     2
 73
     0
 90
        0
 40
-0.6
 41
-30.0
 62
     5
 63
     7
 74
     1
 91
        0
 64
     7
 65
   257
 75
     1
175
     1
 42
1.0
 92
        8
 66
     8
 43
1.0
 76
     1
 77
     6
 78
     2
 67
     7
 79
     5
170
     0
171
     0
290
     0
174
     0
 93
       13
 44
0.0
173
     0
291
     0
 45
0.0
1001
ACAD
1000
AcDbSavedByObjectVersion
1070
     0
  0
VISUALSTYLE
  5
36
102
{ACAD_REACTORS
330
29
102
}
330
29
100
AcDbVisualStyle
  2
Thicken
 70
    13
 71
     2
 72
     2
 73
     0
 90
        0
 40
-0.6
 41
-30.0
 62
     5
 63
     7
 74
     1
 91
        4
 64
     7
 65
   257
 75
     1
175
     1
 42
1.0
 92
       12
 66
     7
 43
1.0
 76
     1
 77
     6
 78
     2
 67
     7
 79
     5
170
     0
171
     0
290
     0
174
     0
 93
        1
 44
0.0
173
     0
291
     1
 45
0.0
1001
ACAD
1000
AcDbSavedByObjectVersion
1070
     0
  0
DICTIONARYVAR
  5
46B
102
{ACAD_REACTORS
330
467
102
}
330
467
100
DictionaryVariables
280
     0
  1
1:1
  0
DICTIONARYVAR
  5
469
102
{ACAD_REACTORS
330
467
102
}
330
467
100
DictionaryVariables
280
     0
  1
STANDARD
  0
DICTIONARYVAR
  5
468
102
{ACAD_REACTORS
330
467
102
}
330
467
100
DictionaryVariables
280
     0
  1
STANDARD
  0
DICTIONARYVAR
  5
472
102
{ACAD_REACTORS
330
467
102
}
330
467
100
DictionaryVariables
280
     0
  1
2
  0
DICTIONARYVAR
  5
471
102
{ACAD_REACTORS
330
467
102
}
330
467
100
DictionaryVariables
280
     0
  1
1
  0
DICTIONARYVAR
  5
470
102
{ACAD_REACTORS
330
467
102
}
330
467
100
DictionaryVariables
280
     0
  1
0
  0
DICTIONARYVAR
  5
473
102
{ACAD_REACTORS
330
467
102
}
330
467
100
DictionaryVariables
280
     0
  1
0.000000
  0
DICTIONARYVAR
  5
46D
102
{ACAD_REACTORS
330
467
102
}
330
467
100
DictionaryVariables
280
     0
  1
0
  0
DICTIONARYVAR
  5
46E
102
{ACAD_REACTORS
330
467
102
}
330
467
100
DictionaryVariables
280
     0
  1
0
  0
DICTIONARYVAR
  5
46C
102
{ACAD_REACTORS
330
467
102
}
330
467
100
DictionaryVariables
280
     0
  1
2
  0
DICTIONARYVAR
  5
474
102
{ACAD_REACTORS
330
467
102
}
330
467
100
DictionaryVariables
280
     0
  1
0.000000
  0
DICTIONARYVAR
  5
46A
102
{ACAD_REACTORS
330
467
102
}
330
467
100
DictionaryVariables
280
     0
  1
1
  0
DICTIONARYVAR
  5
46F
102
{ACAD_REACTORS
330
467
102
}
330
467
100
DictionaryVariables
280
     0
  1
127
  0
DICTIONARYVAR
  5
475
102
{ACAD_REACTORS
330
467
102
}
330
467
100
DictionaryVariables
280
     0
  1
0
  0
XRECORD
  5
464
102
{ACAD_REACTORS
330
462
102
}
330
462
100
AcDbXrecord
280
     1
  1
-2001350
  1
Specialty Equipment
  0
XRECORD
  5
465
102
{ACAD_REACTORS
330
462
102
}
330
462
100
AcDbXrecord
280
     1
  1
6341
  1
Bird Control
  0
XRECORD
  5
463
102
{ACAD_REACTORS
330
462
102
}
330
462
100
AcDbXrecord
280
     1
  1
28084
  1
Support_Jolt : BirdBGone template - Standalone
  0
DICTIONARY
  5
47D
330
74
100
AcDbDictionary
280
     1
281
     1
  3
ACAD_XREC_ROUNDTRIP
360
47E
  0
DICTIONARY
  5
481
330
7C
100
AcDbDictionary
280
     1
281
     1
  3
ACAD_XREC_ROUNDTRIP
360
482
  0
DICTIONARY
  5
47F
330
78
100
AcDbDictionary
280
     1
281
     1
  3
ACAD_XREC_ROUNDTRIP
360
480
  0
DICTIONARY
  5
1A
330
19
100
AcDbDictionary
280
     1
281
     1
  3
ACAD_XREC_ROUNDTRIP
360
47A
  3
BUMPTILE
360
1C
  3
DIFFUSETILE
360
1B
  3
OPACITYTILE
360
1F
  3
REFLECTIONTILE
360
1E
  3
REFRACTIONTILE
360
20
  3
SPECULARTILE
360
1D
  0
DICTIONARY
  5
12
330
11
100
AcDbDictionary
280
     1
281
     1
  3
ACAD_XREC_ROUNDTRIP
360
479
  3
BUMPTILE
360
14
  3
DIFFUSETILE
360
13
  3
OPACITYTILE
360
17
  3
REFLECTIONTILE
360
16
  3
REFRACTIONTILE
360
18
  3
SPECULARTILE
360
15
  0
DICTIONARY
  5
22
330
21
100
AcDbDictionary
280
     1
281
     1
  3
ACAD_XREC_ROUNDTRIP
360
47B
  3
BUMPTILE
360
24
  3
DIFFUSETILE
360
23
  3
OPACITYTILE
360
27
  3
REFLECTIONTILE
360
26
  3
REFRACTIONTILE
360
28
  3
SPECULARTILE
360
25
  0
DICTIONARY
  5
460
330
45F
100
AcDbDictionary
280
     1
281
     1
  3
ACAD_XREC_ROUNDTRIP
360
484
  3
VIZ XML Material Definition
360
461
  0
DICTIONARY
  5
45D
330
45C
100
AcDbDictionary
280
     1
281
     1
  3
ACAD_XREC_ROUNDTRIP
360
483
  3
VIZ XML Material Definition
360
45E
  0
DICTIONARY
  5
476
330
6D
100
AcDbDictionary
280
     1
281
     1
  3
ACAD_ROUNDTRIP_2008_TABLESTYLE_CELLSTYLEMAP
360
477
  3
ACAD_XREC_ROUNDTRIP
360
47C
  0
XRECORD
  5
47E
102
{ACAD_REACTORS
330
47D
102
}
330
47D
100
AcDbXrecord
280
     1
102
SHADEPLOT
 70
     0
102
SHADEPLOTRESLEVEL
 70
     2
102
SHADEPLOTCUSTOMDPI
 70
   300
  0
XRECORD
  5
482
102
{ACAD_REACTORS
330
481
102
}
330
481
100
AcDbXrecord
280
     1
102
SHADEPLOT
 70
     0
102
SHADEPLOTRESLEVEL
 70
     2
102
SHADEPLOTCUSTOMDPI
 70
   300
  0
XRECORD
  5
480
102
{ACAD_REACTORS
330
47F
102
}
330
47F
100
AcDbXrecord
280
     1
102
SHADEPLOT
 70
     0
102
SHADEPLOTRESLEVEL
 70
     2
102
SHADEPLOTCUSTOMDPI
 70
   300
  0
XRECORD
  5
47A
102
{ACAD_REACTORS
330
1A
102
}
330
1A
100
AcDbXrecord
280
     1
102
MATERIAL
148
0.0
149
0.0
149
0.0
 93
        0
 94
      127
282
     0
 72
     0
 77
     0
171
     0
175
     0
179
     0
273
     0
  0
XRECORD
  5
1C
102
{ACAD_REACTORS
330
1A
102
}
330
1A
100
AcDbXrecord
280
     1
270
     1
271
     1
  0
XRECORD
  5
1B
102
{ACAD_REACTORS
330
1A
102
}
330
1A
100
AcDbXrecord
280
     1
270
     1
271
     1
  0
XRECORD
  5
1F
102
{ACAD_REACTORS
330
1A
102
}
330
1A
100
AcDbXrecord
280
     1
270
     1
271
     1
  0
XRECORD
  5
1E
102
{ACAD_REACTORS
330
1A
102
}
330
1A
100
AcDbXrecord
280
     1
270
     1
271
     1
  0
XRECORD
  5
20
102
{ACAD_REACTORS
330
1A
102
}
330
1A
100
AcDbXrecord
280
     1
270
     1
271
     1
  0
XRECORD
  5
1D
102
{ACAD_REACTORS
330
1A
102
}
330
1A
100
AcDbXrecord
280
     1
270
     1
271
     1
  0
XRECORD
  5
479
102
{ACAD_REACTORS
330
12
102
}
330
12
100
AcDbXrecord
280
     1
102
MATERIAL
148
0.0
149
0.0
149
0.0
 93
        0
 94
      127
282
     0
 72
     0
 77
     0
171
     0
175
     0
179
     0
273
     0
  0
XRECORD
  5
14
102
{ACAD_REACTORS
330
12
102
}
330
12
100
AcDbXrecord
280
     1
270
     1
271
     1
  0
XRECORD
  5
13
102
{ACAD_REACTORS
330
12
102
}
330
12
100
AcDbXrecord
280
     1
270
     1
271
     1
  0
XRECORD
  5
17
102
{ACAD_REACTORS
330
12
102
}
330
12
100
AcDbXrecord
280
     1
270
     1
271
     1
  0
XRECORD
  5
16
102
{ACAD_REACTORS
330
12
102
}
330
12
100
AcDbXrecord
280
     1
270
     1
271
     1
  0
XRECORD
  5
18
102
{ACAD_REACTORS
330
12
102
}
330
12
100
AcDbXrecord
280
     1
270
     1
271
     1
  0
XRECORD
  5
15
102
{ACAD_REACTORS
330
12
102
}
330
12
100
AcDbXrecord
280
     1
270
     1
271
     1
  0
XRECORD
  5
47B
102
{ACAD_REACTORS
330
22
102
}
330
22
100
AcDbXrecord
280
     1
102
MATERIAL
148
0.0
149
0.0
149
0.0
 93
        0
 94
      127
282
     0
 72
     0
 77
     0
171
     0
175
     0
179
     0
273
     0
  0
XRECORD
  5
24
102
{ACAD_REACTORS
330
22
102
}
330
22
100
AcDbXrecord
280
     1
270
     1
271
     1
  0
XRECORD
  5
23
102
{ACAD_REACTORS
330
22
102
}
330
22
100
AcDbXrecord
280
     1
270
     1
271
     1
  0
XRECORD
  5
27
102
{ACAD_REACTORS
330
22
102
}
330
22
100
AcDbXrecord
280
     1
270
     1
271
     1
  0
XRECORD
  5
26
102
{ACAD_REACTORS
330
22
102
}
330
22
100
AcDbXrecord
280
     1
270
     1
271
     1
  0
XRECORD
  5
28
102
{ACAD_REACTORS
330
22
102
}
330
22
100
AcDbXrecord
280
     1
270
     1
271
     1
  0
XRECORD
  5
25
102
{ACAD_REACTORS
330
22
102
}
330
22
100
AcDbXrecord
280
     1
270
     1
271
     1
  0
XRECORD
  5
484
102
{ACAD_REACTORS
330
460
102
}
330
460
100
AcDbXrecord
280
     1
102
MATERIAL
148
0.0
149
0.0
149
0.0
 93
        0
 94
      127
282
     0
 72
     1
 77
     0
171
     1
175
     0
179
     1
273
     0
  0
XRECORD
  5
461
102
{ACAD_REACTORS
330
460
102
}
330
460
100
AcDbXrecord
280
     1
300
<Material id="RevitMaterialDefinition2544" app="REVIT" Background="0" Backlight="1" Sample="0" Tiling="0">^J<LinearUnits unitType="foot" unitScale="1.0"/>^J<ArchitecturalMaterial name="Plastic - Bird B Gone - Polycarbonate - Brick Red">^J<ArchTemplateParamet
300
ers name="Plastic - Bird B Gone - Polycarbonate - Brick Red" classid_A="2008828122" classid_B="14503598">^J</ArchTemplateParameters>^J<ArchMatParameters>^J<ArchDiffuseColor>^J<RGBf r="0.5412" g="0.1490" b="0.1412"/>^J</ArchDiffuseColor>^J<ArchIndexOfRefraction>
300
1.5000</ArchIndexOfRefraction>^J<ArchTransparency>0.0000</ArchTransparency>^J<ArchLuminance>0.0000</ArchLuminance>^J</ArchMatParameters>^J<MapSet>^J<MapLib>^J<TextureMap name="Plastic - Bird B Gone - Polycarbonate - Brick Red texture" id="RevitTextureDefinition
300
2544">^J<BitmapMap>^J<TexMapCoords2d>^J<TextureCoords>^J<ExplicitMapChannel CoordPlane="uv">^J<MapChannel>1</MapChannel>^J<UCoords>^J<OffsetCoord>0.0000</OffsetCoord>^J<TilingCoord>0.0000</TilingCoord>^J<TextureTiling Tiling="tile"/>^J</UCoords>^J<VCoords>^J<OffsetCo
300
ord>0.0000</OffsetCoord>^J<TilingCoord>0.0000</TilingCoord>^J<TextureTiling Tiling="tile"/>^J</VCoords>^J</ExplicitMapChannel>^J</TextureCoords>^J</TexMapCoords2d>^J<BitmapParameters>^J<BitmapFile filename="C:\Program Files\Revit Architecture 2009\Data\Rendering\
300
assetlibrary_base.fbm\Materials\PlasticVinyl\Presets\plastic_Smooth_bump.jpg"/>^J<Cropping on="0" CropType="crop">^J<UCrop>0.0</UCrop>^J<VCrop>0.0</VCrop>^J<WCrop>1.0</WCrop>^J<HCrop>1.0</HCrop>^J</Cropping>^J</BitmapParameters>^J</BitmapMap>^J</TextureMap>^J</MapL
300
ib>^J<Map on="1" TexMapChannelNum="1" TexMapChannel="Diffuse Map" Amount="100" TexMapRef="RevitTextureDefinition2544"/>^J</MapSet>^J</ArchitecturalMaterial>^J</Material>^J
  0
XRECORD
  5
483
102
{ACAD_REACTORS
330
45D
102
}
330
45D
100
AcDbXrecord
280
     1
102
MATERIAL
148
0.0
149
0.0
149
0.0
 93
        0
 94
      127
282
     0
 72
     1
 77
     0
171
     1
175
     0
179
     1
273
     0
  0
XRECORD
  5
45E
102
{ACAD_REACTORS
330
45D
102
}
330
45D
100
AcDbXrecord
280
     1
300
<Material id="RevitMaterialDefinition26971" app="REVIT" Background="0" Backlight="1" Sample="0" Tiling="0">^J<LinearUnits unitType="foot" unitScale="1.0"/>^J<ArchitecturalMaterial name="Metal - Copper - Bird B Gone">^J<ArchTemplateParameters name="Metal - Co
300
pper - Bird B Gone" classid_A="2008828122" classid_B="14503598">^J</ArchTemplateParameters>^J<ArchMatParameters>^J<ArchDiffuseColor>^J<RGBf r="0.7333" g="0.3137" b="0.1804"/>^J</ArchDiffuseColor>^J<ArchIndexOfRefraction>1.5000</ArchIndexOfRefraction>^J<ArchTrans
300
parency>0.0000</ArchTransparency>^J<ArchLuminance>0.0000</ArchLuminance>^J</ArchMatParameters>^J<MapSet>^J<MapLib>^J<TextureMap name="Metal - Copper - Bird B Gone texture" id="RevitTextureDefinition26971">^J<BitmapMap>^J<TexMapCoords2d>^J<TextureCoords>^J<Explicit
300
MapChannel CoordPlane="uv">^J<MapChannel>1</MapChannel>^J<UCoords>^J<OffsetCoord>0.0000</OffsetCoord>^J<TilingCoord>0.0000</TilingCoord>^J<TextureTiling Tiling="tile"/>^J</UCoords>^J<VCoords>^J<OffsetCoord>0.0000</OffsetCoord>^J<TilingCoord>0.0000</TilingCoord>^J<T
300
extureTiling Tiling="tile"/>^J</VCoords>^J</ExplicitMapChannel>^J</TextureCoords>^J</TexMapCoords2d>^J<BitmapParameters>^J<BitmapFile filename="C:\Users\Robert\AppData\Local\Temp"/>^J<Cropping on="0" CropType="crop">^J<UCrop>0.0</UCrop>^J<VCrop>0.0</VCrop>^J<WCrop>
300
1.0</WCrop>^J<HCrop>1.0</HCrop>^J</Cropping>^J</BitmapParameters>^J</BitmapMap>^J</TextureMap>^J</MapLib>^J<Map on="1" TexMapChannelNum="1" TexMapChannel="Diffuse Map" Amount="100" TexMapRef="RevitTextureDefinition26971"/>^J</MapSet>^J</ArchitecturalMaterial>^J</Ma
300
terial>^J
  0
CELLSTYLEMAP
  5
477
102
{ACAD_REACTORS
330
476
102
}
330
476
100
AcDbCellStyleMap
 90
        3
300
CELLSTYLE
  1
TABLEFORMAT_BEGIN
 90
        5
170
     1
 91
        0
 92
    32768
 62
   257
 93
        1
300
CONTENTFORMAT
  1
CONTENTFORMAT_BEGIN
 90
        0
 91
        0
 92
      512
 93
        0
300

 40
0.0
140
1.0
 94
        5
 62
     0
340
5D
144
0.25
309
CONTENTFORMAT_END
171
     0
 94
        0
309
TABLEFORMAT_END
  1
CELLSTYLE_BEGIN
 90
        1
 91
        1
300
_TITLE
309
CELLSTYLE_END
300
CELLSTYLE
  1
TABLEFORMAT_BEGIN
 90
        5
170
     1
 91
        0
 92
        0
 62
   257
 93
        1
300
CONTENTFORMAT
  1
CONTENTFORMAT_BEGIN
 90
        0
 91
        0
 92
      512
 93
        0
300

 40
0.0
140
1.0
 94
        5
 62
     0
340
5D
144
0.18
309
CONTENTFORMAT_END
171
     0
 94
        0
309
TABLEFORMAT_END
  1
CELLSTYLE_BEGIN
 90
        2
 91
        1
300
_HEADER
309
CELLSTYLE_END
300
CELLSTYLE
  1
TABLEFORMAT_BEGIN
 90
        5
170
     1
 91
        0
 92
        0
 62
   257
 93
        1
300
CONTENTFORMAT
  1
CONTENTFORMAT_BEGIN
 90
        0
 91
        0
 92
      512
 93
        0
300

 40
0.0
140
1.0
 94
        2
 62
     0
340
5D
144
0.18
309
CONTENTFORMAT_END
171
     0
 94
        0
309
TABLEFORMAT_END
  1
CELLSTYLE_BEGIN
 90
        3
 91
        2
300
_DATA
309
CELLSTYLE_END
  0
XRECORD
  5
47C
102
{ACAD_REACTORS
330
476
102
}
330
476
100
AcDbXrecord
280
     1
102
ACAD_ROUNDTRIP_PRE2007_TABLESTYLE
 90
      512
 91
        0
  1

 92
      512
 93
        0
  2

 94
      512
 95
        0
  3

  0
ENDSEC
  0
EOF
